Guitar Tabs
song title    band name

Join Us Today!

Don't strum alone...
be a part of the largest online Christian music community. Browse thousands of guitar tabs and chat w/ musicians like yourself.


It's Free!

This tab has been rated a 2.50 out of 5 for accuracy. (2 votes)Sorry, but you must be logged in to rate this tab.
Click here to log-in, or you can click here to register.
(Registration is free)

All songs owned by corresponding publishing company. If you make copies of any song on this website, be sure to report your usage to CCLI.
Submitted by: tl_guitarnut

Song: Disgusting Mistakes With Goodbyes 
Artist: Emery 
Album: The Weak’s End
Copyright ã Tooth and Nail Records
Tuning: Drop C# (C#G#C#F#A#D#)


p=pull off
pm……=palm mute
s=slide
sd=slide down 
b=bend



Intro:
D# | --------------------------------------------------|
A# | ---------------------3-------------------------5--|
F# | -----------------------------------------------4--|
C# | -2-2-2-2-5p4-5p4-5p4---4---2-2-2-2-5p4-5p4-5p4----|  4x
G# | -2-2-2-2-------------------2-2-2-2----------------|
C# | -2-2-2-2-------------------2-2-2-2----------------|
pm    . . . .                   . . . .


Verse:
D# | --------------------------------------------------|
A# | ---------------------3-------------------------5--|
F# | -----------------------------------------------4--|
C# | -2-2-2-2-5p4-5p4-5p4---4---2-2-2-2-5p4-5p4-5p4----|  
G# | -2-2-2-2-------------------2-2-2-2----------------|
C# | -2-2-2-2-------------------2-2-2-2----------------|
pm    . . . .                   . . . .


Then:
D# | ----------------------------------------------------|
A# | ----------------------3-------------------------5---|
F# | ------------------------------------------------4---|
C# | -7-7-7-7--5p4-5p4-5p4---4--7-7-7-7--5p4-5p4-5p4-----|
G# | -5-5-5-5-------------------5-5-5-5------------------|
C# | -5-5-5-5-------------------5-5-5-5------------------|
pm    . . . .                   . . . .


Then:
D# | ---------------------------------------------------|
A# | ----------------------3-------------------------5--|
F# | -5-5-5-5-------------------5-5-5-5--------------4--|
C# | -5-5-5-5--5p4-5p4-5p4---4--5-5-5-5--5p4-5p4-5p4----| x2
G# | -3-3-3-3-------------------3-3-3-3-----------------|
C# | ---------------------------------------------------|
pm    . . . .                   . . . .


Then:
F# | -4-|
C# | -2-|
G# | -2-|
C# | -2-|


Pre-Chorus guitar 1(Clean):
D# | -----------------|
A# | -5-5-5-5-5-------|
F# | -6-6-6-6-6-------| 4x
C# | -7-7-7-7-7-------|

Guitar 2:
D# | -----|
A# | -----|
F# | -13--|
C# | -11--|
G# | -11--|
C# | -11--|


Chorus Guitar 2: 
D# | -----------------|
A# | -5-5-5-5-5-------|
F# | -6-6-6-6-6-------| a lot
C# | -7-7-7-7-7-------|


Guitar 1 plays this every once in a while:
D# | -19-----------|
A# | ---17----17---|
F# | ------16------|
C# | --------------|


Then Guitar 1:
F# | -12-12-12-12--9-9-9-|
C# | -12-12-12-12--9-9-9-|
G# | -10-10-10-10--7-7-7-|
C# | --------------------|


Guitar 2:
A# | ----------------------|
F# | -12---12-11-7--9-7sd--|
C# | --x----x--x-x--x-xsd--| 
G# | -10---10--9-5--7-5sd--|


Then Guitar 2:
D# | -----------------|
A# | -5-5-5-5-5-------|
F# | -6-6-6-6-6-------|
C# | -7-7-7-7-7-------| 2x
G# | -----------------|
C# | -----------------|


Guitar 1 still does this:
D# | -19-----------|
A# | ---17----17---|
F# | ------16------|
C# | --------------|


Then Guitar 1:
F# | -12-12-12-12--9-9-9-|
C# | -12-12-12-12--9-9-9-|
G# | -10-10-10-10--7-7-7-|
C# | --------------------|


Guitar 2:
A# | ----------------------|
F# | -12---12-11-7--9-7sd--|
C# | --x----x--x-x--x-xsd--| 
G# | -10---10--9-5--7-5sd--|


Then Guitar 1:
D# | -----------------|
A# | -3-3-3-3--8-7----| 2x
F# | -4-4-4-4-----7---|
C# | -5-5-5-5---------|


then: you can kinda hear this with the feedback
D# | ----|
A# | -7--|
F# | -6--|
C# | -5--|
G# | -5--|
C# | -5--|


Then “Empty Diaries…”:
F# | -------------------------|
C# | -10-10---12-12--9-9--5-5-|
G# | -10-10---12-12--9-9--5-5-|
C# | -10-10---12-12--9-9--5-5-|


Then :
C# | -9--9--9----|
G# | --10-10-10--| a lot
C# | ------------|


Then It gets harder:
A# | --------------------------------------------------------|
F# | --------------------------------------------------------|
C# | -----------------------7-7------------------7-7-7-5-----|
G# | -9---9--10--10--9--9----7-7--9--9---10--10---7-7-7------|
C# | --12--12--12--12-12-12--------12-12---12--12------------|


D# | --------------------------------------------------------|
A# | --------------------------------------------------------|
F# | --------------------------------------------------------|
C# | --------7-7-----------------------------------7-7-7-7h9-|
G# | -9--9----7-7--9--9---10--10----10-10---9--9----7-7-7----|
C# | --12-12--------12-12---12--12----12-12--12--12----------|


Then Guitar 2 “Promise breaks………”
D# | -------------------|
A# | -------------------|
F# | -------------------|
C# | -2-bass-2-2-bass-2-|
G# | -2------2-2------2-|
C# | -2------2-2------2-|


Breakdown(part with screaming)
F# | ---------11b-11b-11b---------11b-11b-11b---|
C# | -2-2-2-2--x---x---x--2-2-2-2--x---x---x----| 2x
G# | -2-2-2-2--9b--9b--9b-2-2-2-2--9b--9b--9b---|
C# | -2-2-2-2-------------2-2-2-2---------------|
pm    . . . .             . . . .


Then:
F# | ---------11s14s11---------11s14s11--|
C# | -2-2-2-2--xs-xs-x-2-2-2-2--xs-xs-x--| 
G# | -2-2-2-2--9s12s-9-2-2-2-2--9s12s-9--|
C# | -2-2-2-2----------2-2-2-2-----------|
pm    . . . .          . . . .


Then:
F# | ---------11s14s11---|
C# | -2-2-2-2--xs-xs-x---|
G# | -2-2-2-2--9s12s-9---|
C# | -2-2-2-2------------|
pm    . . . .          


Guitar 2 comes in:
D# | -------------------|
A# | -------------------|
F# | -------------------|
C# | -------------------|
G# | -------------------|
C# | -7-9-10--2-4-------|


Guitar 1 comes in with the higher notes:
F# | ---------------------|
C# | -------------7-------|
G# | -7-9-10-9-10---10-9--|
C# | ---------------------|


Then Guitar 2: “I Know………”
F# | -5-----7-----5-----7---|
C# | -5-----7-----5-----7---|
G# | -3-----5-----3-----5---|
C# | -----------------------|


Guitar 1:
A# | ------------------|
F# | -11-----11s12s11--|
C# | --x------xs-xs-x--| 4x
G# | --9------9s10s-9--|
C# | ------------------|


Then Guitar 2:
D# | -----------------------------------|
A# | -----------------------------------|
F# | -7-7-7-7-5-5-5-5-5-5-5-5-7-7-7-7---|
C# | -7-7-7-7-5-5-5-5-5-5-5-5-7-7-7-7---|
G# | -5-5-5-5-3-3-3-3-3-3-3-3-5-5-5-5---|
C# | -----------------------------------|



Guitar 1:
D# | -10-10-10------------------------------------------------------------|
A# | --x--x--x-------------------10-10-8-8-12-12----------8-8-8-8-8-8-8-8-|
F# | --7--7--7--7-7-7--11s12s11---x--x-x-x--x--x-11s12s11-x-x-x-x-x-x-x-x-|
C# | -----------x-x-x---xs-xs-x---7--7-5-5--9--9--xs-xs-x-5-5-5-5-5-5-5-5-|
G# | -----------5-5-5---9s10s-9-------------------9s10s-9-----------------|
C# | ---------------------------------------------------------------------|


Then: Guitar 1:
A# | -10-10-10-10-10-10-10-10-10-10-10-8-------|
F# | --x--x--x--x--x--x--x--x--x--x--x-x-------|
C# | --7--7--7--7--7--7--7--7--7--7--7-5-------|


Ending: Piano


God Bless,
tl_guitarnut

Comments about this tab

thespottedelf - 2006-09-11

i play it
--------------------
--------------------
--------7----------9
----5454-4----5454-7
--------------------
0000------0000------


thespottedelf - 2006-09-11

sorry forgot to say the tuning :(

everything down a half step


tl_guitarnut - 2006-09-11

that way is right as well


inferno420 - 2007-03-09

i like to play it the tabs way, i just like to play the whole e minor.


Add a comment/correction

Complimentary Christian Ringtones
Dadamobile and CGR have teamed up to bring your favorite Christian artists right to your phone. Sign up today and get 10 complementary ringtones!
Tab Country
Did you know CGR has a sister site w/ country guitar tabs? Well we do! Its called Tab Country. It has a great archive with a lot of country tabs.
Rockin Tabs
Are you looking for a site that has rock guitar tabs? Then Rockintabs.com is the place for you. It is a budding site with many rock guitar tabs. Submit your tab today.
Tab Gallery
Tab Gallery has a compilation of christian, rock, and country tabs all in one place. Come visit us.