Guitar Tabs
song title    band name

Join Us Today!

Don't strum alone...
be a part of the largest online Christian music community. Browse thousands of guitar tabs and chat w/ musicians like yourself.


It's Free!

This tab has been rated a 5.00 out of 5 for accuracy. (1 vote)Sorry, but you must be logged in to rate this tab.
Click here to log-in, or you can click here to register.
(Registration is free)

All songs owned by corresponding publishing company. If you make copies of any song on this website, be sure to report your usage to CCLI.
Submitted by: oneway1516

This song is easiest played with capo on the 6th fret.
and also with this type of tuning
EADGBD  (High e tuned down to d)

D--4-----4h5----5p4------4s2--0--0----0----0--2s4--------------
B---------------------0----------------------------------------
G-----0-------0------0-------------0----0----------------------
D--2-----------------------------0--0--------------------------
A--------------------------------------------------------------
E--------------------------------------------------------------
Then just repeat that over and over during the verses, the chords for the chorus are
G, D/F, Em7, C2, just a little picking pattern is all you need.
Then there is a bridge after the chorus runs through twice and on that 
this is what he plays (s means slap all the strings)

D-----s-----s-----s-------
B--3--s--3--s--3--s--3----
G--0--s--2--s--0--s--0----   (Repeat)
D-----s-----s-----s-------
A-----s-----s--2--s--3----
E--3--s--2--s-----s-------

This is how i see it being played and it is the easiest played this way...
if you see anything that needs to be changed then be sure to post it
austin

Comments about this tab

No comments/corrections found. Add your own

Complimentary Christian Ringtones
Dadamobile and CGR have teamed up to bring your favorite Christian artists right to your phone. Sign up today and get 10 complementary ringtones!
Tab Country
Did you know CGR has a sister site w/ country guitar tabs? Well we do! Its called Tab Country. It has a great archive with a lot of country tabs.
Rockin Tabs
Are you looking for a site that has rock guitar tabs? Then Rockintabs.com is the place for you. It is a budding site with many rock guitar tabs. Submit your tab today.
Tab Gallery
Tab Gallery has a compilation of christian, rock, and country tabs all in one place. Come visit us.