Guitar Tabs
song title    band name

Join Us Today!

Don't strum alone...
be a part of the largest online Christian music community. Browse thousands of guitar tabs and chat w/ musicians like yourself.


It's Free!

This tab has been rated a 5.00 out of 5 for accuracy. (2 votes)Sorry, but you must be logged in to rate this tab.
Click here to log-in, or you can click here to register.
(Registration is free)

All songs owned by corresponding publishing company. If you make copies of any song on this website, be sure to report your usage to CCLI.
Submitted by: Adam K

Number One Gun: Starting Line
From: Celebrate Mistakes
Copyright  2003 Tooth & Nail Records
Drop D Tuning D-A-D-G-B-E

h=hammer on
~=let it ring
b=bend
r=return bend
p=pull off
palm mute=...etc

Intro
Gtr. 2
E[-------------------]
B[-------------------]
G[-------------------]
D[-4-4/5----4-4/5----]
A[-5-5/5----5-5/5----]x2
D[-4-4/5----4-4/5----]

Gtr. 1
E[-------------------]
B[-------------------]
G[---6h7/6-6h7/6-----]
D[--------7-----7----]
A[-------------------]x4
D[-------------------]
Then
Gtr. 2
E[---------------]
B[---------------]
G[-7--6--7--6----]
D[-x--x--x--x----]
A[-5--5--5--5----]
D[---------------]

Gtr. 1
E[-------------------]
B[-7~--5~--7br~--5~--]
G[-------------------]
D[-------------------]
A[-------------------]
D[-------------------]

Verse 1
E[-------------------]
B[-------------------]
G[-------------------]
D[-4-4/5----4-4/5----]
A[-5-5/5----5-5/5----]
D[-4-4/5----4-4/5----]
Then
E[---------------]
B[---------------]
G[-7--6--7--6----]
D[-x--x--x--x----]
A[-5--5--5--5----]
D[---------------]
Then
E[-------------------]
B[-------------------]
G[-------------------]
D[-4-4/5----4-4/5----]
A[-5-5/5----5-5/5----]
D[-4-4/5----4-4/5----]
Then
E[---------------]
B[---------------]
G[-7--6--7--6----]
D[-x--x--x--x----]
A[-5--5--5--5----]
D[---------------]

Interlude
Gtr. 1
E[--------------------------------------]
B[--------------------------------------]
G[--------------------------------------]
D[-0--12p0-5p0-4p0-5p0-5h7/5p0-4h5/4----]
A[--------------------------------------]
D[--------------------------------------]

E[-----------------------------------]
B[-----------------------------------]
G[-----------------------------------]
D[-12p0-5p0-4p0-5p0-5h7/5p0-4h5/4----]
A[-----------------------------------]
D[-----------------------------------]
Then
Gtr. 1
E[-----------------------------------]
B[-----------------------------------]
G[-----------------------------------]
D[-12p0-5p0-4p0-5p0-5h7/5p0-4h5/4----]
A[-----------------------------------]x4
D[-----------------------------------]

Gtr. 2
E[---5---5-----------]
B[-7---7---10--10----]
G[-7---7----9---9----]
D[-5---5----7---7----]
A[-------------------]x4
D[-------------------]

Gtr. 3
E[-----------]
B[-----------]
G[-----------]
D[-5----7----]
A[-5----7----]x4
D[-5----7----]
   ..........

Verse 2
(same as Verse 1)

Bridge
E[----------------]
B[----------------]
G[-xxxxxx7-7-7----]
D[-xxxxxx7-7-7----]
A[-xxxxxx5-5-5----]
D[-xxxxxx5-5-5----]
Then
Gtr. 2
E[----------------------]
B[----------10----------]
G[-4----7----9----7-----]
D[-4----7----7----7-----]
A[-2----5----7----5-----]
D[------5----7----5-----]
Gtr. 1
E[----------------------]
B[----------------------]
G[-7---------6-----7----]
D[-x---------x-----x----]
A[-5---------5-----5----]
D[----------------------]
Then
Gtr. 2
E[----------------------]
B[-----------7----------]
G[-4----7----7----7-----]
D[-4----7----7----7-----]
A[-2----5----5----5-----]
D[------5---------5-----]
Gtr. 1
E[----------------------]
B[----------------------]
G[-7---------6-----7----]
D[-x---------x-----x----]
A[-5---------5-----5----]
D[----------------------]
Then
Gtr. 2
E[----------------------]
B[-----------7----------]
G[-4----7----7----7-----]
D[-4----7----7----7-----]
A[-2----5----5----5-----]
D[------5---------5-----]
Gtr. 1
E[----------------------]
B[----------------------]
G[-7---------6-----7----]
D[-x---------x-----x----]
A[-5---------5-----5----]
D[----------------------]

Ending
Gtr. 2
E[-----------]
B[-----10----]
G[-7----9----]
D[-7----7----]
A[-5----7----]x8?
D[-5----7----]

Gtr. 1
E[--------------------------]
B[-7---7-8/7-10--7-8/7-7----]
G[-7---7-7/7--7--7-7/7-7----]
D[--------------------------]
A[--------------------------]x8?
D[--------------------------]

Then
Gtr. 2
E[-------------------]
B[-7-----------------]
G[-7-----------------]
D[-5-----------------]
A[-5-----------------]
D[-5-----------------]
   .................

Fade out



Tabbed by Adam K

Comments about this tab

tl_guitarnut - 2006-08-21

sweet tab! you think you could tab anything from their new cd?


Alex_face - 2006-08-22

Looks great, sounds great. Thanks


E-rock - 2006-08-23

yep, youre the man


Add a comment/correction

Complimentary Christian Ringtones
Dadamobile and CGR have teamed up to bring your favorite Christian artists right to your phone. Sign up today and get 10 complementary ringtones!
Tab Country
Did you know CGR has a sister site w/ country guitar tabs? Well we do! Its called Tab Country. It has a great archive with a lot of country tabs.
Rockin Tabs
Are you looking for a site that has rock guitar tabs? Then Rockintabs.com is the place for you. It is a budding site with many rock guitar tabs. Submit your tab today.
Tab Gallery
Tab Gallery has a compilation of christian, rock, and country tabs all in one place. Come visit us.