Guitar Tabs
song title    band name

Join Us Today!

Don't strum alone...
be a part of the largest online Christian music community. Browse thousands of guitar tabs and chat w/ musicians like yourself.


It's Free!

This tab has been rated a 5.00 out of 5 for accuracy. (4 votes)Sorry, but you must be logged in to rate this tab.
Click here to log-in, or you can click here to register.
(Registration is free)

All songs owned by corresponding publishing company. If you make copies of any song on this website, be sure to report your usage to CCLI.
Submitted by: Adam K

Kids In The Way: Fiction
From: Apparitions Of Melody (Dead Letters Edition)
Copyright  2006 Flicker Records
Drop C# Tuning C#-G#-C#-F#-A#-D#

s=slide
Palm Mute=...etc
h=hammer on

Intro
D#[------------------------------------------]
A#[-----3/2----------------------3/2---------]
F#[-----------4---4-2/4-2/4------------4-----]
C#[-2s4-----4---4------------2s4-----4-------]
G#[------------------------------------------]x2
C#[------------------------------------------]

Verse 1
D#[----------------------]
A#[----------------------]
F#[----------------------]
C#[-4---6-7----2----9----]
G#[-4---6-7----2----9----]x3
C#[-4---6-7----2----9----]
    .....................

D#[----------------------]
A#[----------------------]
F#[----------------------]
C#[-4---6-7----2----9----]
G#[-4---6-7----2----9----]
C#[-4---6-7----2----9----]
    ..................

Chorus
D#[---------------------------------------------]
A#[---------------------------------------------]
F#[-11----9----4--4s6-6--11----9----4--4/6-6----]
C#[--x----x----4--4s6-4---x----x----4--4/6-4----]
G#[--9----7----2--2s4-4---9----7----2--2/4-4----]
C#[-------------------4--------------------4----]

Post-Chorus
D#[----------------------------]
A#[-----3/2--------------------]
F#[-----------4---4-2/4-2/4----]
C#[-2s4-----4---4--------------]
G#[----------------------------]
C#[----------------------------]

Verse 2
(Same as Verse 1)

Chorus 2
D#[---------------------------------------------]
A#[---------------------------------------------]
F#[-11----9----4--4s6-6--11----9----4--4/6-6----]
C#[--x----x----4--4s6-4---x----x----4--4/6-4----]
G#[--9----7----2--2s4-4---9----7----2--2/4-4----]x2
C#[-------------------4--------------------4----]

Bridge
D#[----------------------------------]
A#[----------------------------------]
F#[----------------------------------]
C#[-4------2--------9h11--------4----]
G#[-4-----2-------9-----------4------]
C#[-4----2------9-----------4--------]

D#[---------------------------------------------------------]
A#[---------------------------------------------------------]
F#[----------------------------------------------6--7--6----]
C#[-4/4/4/2/4----2/2/2/0/2--xx--9/9/9/9/9-xx--xx-6--7--7----]
G#[-4/4/4/2/4----2/2/2/0/2--xx--9/9/9/9/9-xx--xx-4--5--4----]
C#[-4/4/4/2/4----2/2/2/0/2--xx--9/9/9/9/9-xx--xx------------]

Pre-Chorus
D#[------------------------------------------]
A#[-----3/2----------------------3/2---------]
F#[-----------4---4-2/4-2/4------------4-----]
C#[-2s4-----4---4------------2s4-----4-------]
G#[------------------------------------------]
C#[------------------------------------------]

Chorus 2

Ending
D#[-------------]
A#[-------------]
F#[-4--4/6-6----]
C#[-4--4/6-4----]
G#[-2--2/4-4----]x2
C#[--------4----]


Tabbed by Adam K

Comments about this tab

heisouronlyhope - 2006-08-17

i dont think Kids in the way tune that low.


Adam K - 2006-08-17

Uh they do on this song. Or else they couldn't play the open chord on the bridge.


ice_wiz - 2006-08-17

They always tune that low, on Last Day of 1888, Burt Rutan, Breaking The Legs of Sheep, and more.


ice_wiz - 2006-08-27

Love is another song the do it.


musikfreak165 - 2006-10-19

I guess this is just preference but I like to add this:

Intro
D#[--------------------------------------------]
A#[-----3/2------------------------3/2---------]
F#[-----------4---4---2/4-2/4------------4-----]
C#[-2s4-----4---4---4----------2s4-----4-------]
G#[-----------------^this_part-----------------]x2
C#[--------------------------------------------]

w/e...it sounds good...and you could mute it too


chrisizzle - 2007-04-30

Does anyone have the tab for standard EBGDAE tuning?


EKCender429 - 2008-02-14

sorry chrissizle, but this song is impossible to play accurately w/o this tuning


Add a comment/correction

Complimentary Christian Ringtones
Dadamobile and CGR have teamed up to bring your favorite Christian artists right to your phone. Sign up today and get 10 complementary ringtones!
Tab Country
Did you know CGR has a sister site w/ country guitar tabs? Well we do! Its called Tab Country. It has a great archive with a lot of country tabs.
Rockin Tabs
Are you looking for a site that has rock guitar tabs? Then Rockintabs.com is the place for you. It is a budding site with many rock guitar tabs. Submit your tab today.
Tab Gallery
Tab Gallery has a compilation of christian, rock, and country tabs all in one place. Come visit us.