Guitar Tabs
song title    band name

Join Us Today!

Don't strum alone...
be a part of the largest online Christian music community. Browse thousands of guitar tabs and chat w/ musicians like yourself.


It's Free!

This tab has been rated a 5.00 out of 5 for accuracy. (4 votes)Sorry, but you must be logged in to rate this tab.
Click here to log-in, or you can click here to register.
(Registration is free)

All songs owned by corresponding publishing company. If you make copies of any song on this website, be sure to report your usage to CCLI.
Submitted by: Adam K

Kutless: Somewhere In The Sky (Acoustic)
From: Hearts Of The Innocent (Special Edition)
Copyright  2006 Tooth & Nail Records
Drop C# Tuning C#-G#-C#-F#-A#-D#

h=hammer on

Intro
D#[-3--3--------------------------]
A#[-3--3--------------------------]
F#[-2--5---7/7-7/7-7-7/7-7/7-7----]
C#[-2--5---7/7-7/7-7-7/7-7/7-7----]
G#[-0--3---5/5-5/5-5-5/5-5/5-5----]x2
C#[-------------------------------]

Verse 1
D#[-----------------------------------------]
A#[-----------------------------------------]
F#[---------------------------7/7-----------]
C#[-----5---5---5--5------0---0/0---0--0----]
G#[---3-----------------0-------------------]x3
C#[-3-----3---3---3---0-----0-----0---0-----]

D#[-----------]
A#[-----------]
F#[-5---------]
C#[-5----5----]
G#[-3----5----]
C#[------5----]

Chorus
D#[-3--3--------------------------]
A#[-3--3--------------------------]
F#[-2--5---7/7-7/7-7-7/7-7/7-7----]
C#[-2--5---7/7-7/7-7-7/7-7/7-7----]
G#[-0--3---5/5-5/5-5-5/5-5/5-5----]x2
C#[-------------------------------]

D#[--------------]
A#[--------------]
F#[--------------]
C#[-7----3--5----]
G#[-7----3--5----]
C#[-7----3--5----]

D#[-3--3--------------------------]
A#[-3--3--------------------------]
F#[-2--5---7/7-7/7-7-7/7-7/7-7----]
C#[-2--5---7/7-7/7-7-7/7-7/7-7----]
G#[-0--3---5/5-5/5-5-5/5-5/5-5----]
C#[-------------------------------]

Verse 2
(Same as Verse 1)

Chorus

Bridge
D#[--------------------------------------]
A#[--------------------------------------]
F#[--------------------------------------]
C#[-xx2x2h3xx2x2h3xx5/0-8/7/0/5/0/5h7----]
G#[-xx2x2h3xx2x2h3xx5/0-8/7/0/5/0/5h7----]x2
C#[-xx2x2h3xx2x2h3xx5/0-8/7/0/5/0/5h7----]

D#[--------------------------------------]
A#[--------------------------------------]
F#[--------------------------------------]
C#[-xx2x2h3xx2x2h3xx5/0-8/7/0/5/0/5h7----]
G#[-xx2x2h3xx2x2h3xx5/0-8/7/0/5/0/5h7----]
C#[-xx2x2h3xx2x2h3xx5/0-8/7/0/5/0/5h7----]

D#[--------------------]
A#[--------------------]
F#[--------------------]
C#[-0-8/7/0/5/0/5h7----]
G#[-0-8/7/0/5/0/5h7----]x3
C#[-0-8/7/0/5/0/5h7----]

Chorus 2
D#[--------------]
A#[--------------]
F#[--------------]
C#[-7----3--5xx--]
G#[-7----3--5xx--]
C#[-7----3--5xx--]

D#[-3--3--------------------------]
A#[-3--3--------------------------]
F#[-2--5---7/7-7/7-7-7/7-7/7-7----]
C#[-2--5---7/7-7/7-7-7/7-7/7-7----]
G#[-0--3---5/5-5/5-5-5/5-5/5-5----]
C#[-------------------------------]

D#[--------------]
A#[--------------]
F#[--------------]
C#[-7----3--5----]
G#[-7----3--5----]
C#[-7----3--5----]

D#[-3--3--------------------------]
A#[-3--3--------------------------]
F#[-2--5---7/7-7/7-7-7/7-7/7-7----]
C#[-2--5---7/7-7/7-7-7/7-7/7-7----]
G#[-0--3---5/5-5/5-5-5/5-5/5-5----]x2
C#[-------------------------------]


Tabbed by Adam K

Comments about this tab

deanodubb - 2006-09-22

Havent had a chance to play it yet as my thumb is screwed and it is kinda hard to play with one and a half hands, but looking at it it looks pretty good. nice job!


Calypsan - 2006-11-09

Thnx for all your tabs Adam. I tabbed this song out myself but I didnt post it because yours was already up here and your tabs are always perfect.


Add a comment/correction

Complimentary Christian Ringtones
Dadamobile and CGR have teamed up to bring your favorite Christian artists right to your phone. Sign up today and get 10 complementary ringtones!
Tab Country
Did you know CGR has a sister site w/ country guitar tabs? Well we do! Its called Tab Country. It has a great archive with a lot of country tabs.
Rockin Tabs
Are you looking for a site that has rock guitar tabs? Then Rockintabs.com is the place for you. It is a budding site with many rock guitar tabs. Submit your tab today.
Tab Gallery
Tab Gallery has a compilation of christian, rock, and country tabs all in one place. Come visit us.