Guitar Tabs
song title    band name

Join Us Today!

Don't strum alone...
be a part of the largest online Christian music community. Browse thousands of guitar tabs and chat w/ musicians like yourself.


It's Free!

This tab has been rated a 4.50 out of 5 for accuracy. (2 votes)Sorry, but you must be logged in to rate this tab.
Click here to log-in, or you can click here to register.
(Registration is free)

All songs owned by corresponding publishing company. If you make copies of any song on this website, be sure to report your usage to CCLI.
Submitted by: tl_guitarnut

Title: The Seed Weve Sown
Artist: Kids in the Way
Album: Apparitions of Melody
Copyright Flicker Records
Tuning: Standard (EADGBe)


PM=Palm muting
s=Slide


Intro: Drums and screaming


Verse 1:
e | -------------------------------------------------------|
B | -2-2--2-2-2--2-2-2--2-2-2--4-4-4--4-4-4--4-4-4--4-4-4--|
G | -3-3--3-3-3--3-3-3--3-3-3--4-4-4--4-4-4--4-4-4--4-4-4--|
D | -------------------------------------------------------|
PM ........................................................

Then:
e | ---------------------------------------------------------|
B | ---------------------------------------------------------|
G | -1-1-1--1-1-1--1-1-1--1-1-1--1-1-1--1-1-1--1-1-1--1-1-1--|
D | -2-2-2--2-2-2--2-2-2--2-2-2--1-1-1--1-1-1--1-1-1--1-1-1--|
A | ---------------------------------------------------------|
E | ---------------------------------------------------------|
PM ..........................................................
Repeat verse up until that point


Then:
e | -------------------------------------------|
B | ---7----7-----7----7-----7----7----7----7--|
G | --4-4--4-4---4-4--4-4---4-4--4-4--4-4--4-4-|
D | -4----4-----4----4-------------------------| x2
A | -----------------------7----7----7----7----|
E | -------------------------------------------|


Chorus:
e | ---------------|
B | ---------------|
G | -8-8-8-9-9-----|
D | -8-8-8-9-9-----| x2
A | -6-6-6-7-7-----|
E | ---------------|


Verse 2: Same as Verse 1


Chorus x2


Drums for a bit then:
e | ----2s4s6-----2-1----|
A | -4-4------4-4----2---|
D | ---------------------| 5x
G | ---------------------|
B | ---------------------|


Then:
e | -----------|
B | -----------|
G | -8-----9---|
D | -8-----9---|
A | -6-----7---|
E | -----------|


Chorus x2


Ending:
e | -----------------------------|
B | -----------------------------|
G | -----3------1----------------|
D | -1-1-3--1-1-1-1-1---1-1------| 8x
A | -1-1-1--1-1---1-1-1-1-1-1----|
E | ------------------2-----2----|


End on:
D | -1-|
A | -1-|



There you go, comments are welcome.


God Bless, 
tl_guitarnut




Comments about this tab

ice_wiz - 2006-08-09

Looks pretty good, I'll get back to you in a bit once I go through it a few times with the song.


tl_guitarnut - 2006-08-09

okay thanks


ice_wiz - 2006-08-16

Tryed it out, sounds good, but messed up a bit in some of the chorus. As there is more than ten strums in the chorus. Overall a good tab, the ending sounded good as I'm sure that might have been a little more difficult to tab.


tl_guitarnut - 2006-08-16

yeah the ending was hard to tab, as I listen to it again I think your right about the chorus, thanks for the comment!


Add a comment/correction

Complimentary Christian Ringtones
Dadamobile and CGR have teamed up to bring your favorite Christian artists right to your phone. Sign up today and get 10 complementary ringtones!
Tab Country
Did you know CGR has a sister site w/ country guitar tabs? Well we do! Its called Tab Country. It has a great archive with a lot of country tabs.
Rockin Tabs
Are you looking for a site that has rock guitar tabs? Then Rockintabs.com is the place for you. It is a budding site with many rock guitar tabs. Submit your tab today.
Tab Gallery
Tab Gallery has a compilation of christian, rock, and country tabs all in one place. Come visit us.