Guitar Tabs
song title    band name

Join Us Today!

Don't strum alone...
be a part of the largest online Christian music community. Browse thousands of guitar tabs and chat w/ musicians like yourself.


It's Free!

This tab has not yet been rated for accuracy.Sorry, but you must be logged in to rate this tab.
Click here to log-in, or you can click here to register.
(Registration is free)

All songs owned by corresponding publishing company. If you make copies of any song on this website, be sure to report your usage to CCLI.
Submitted by: Ablaze2822

Song: Breathe
Artist: Jeremy Camp
Album: Restored
Tabbed By: Josh
Tuning: Standard
(High to Low)
E
B
G
D
A
E

I cant believe that you guys dont have this song in your archives. It is a
great song from Jeremys new album Restored.

Extras:
Sorry guys I didnt know how to abreviate a palm mute while still strumming the
G power chord, so whenever there are parenthesis around a number that means mute
the strings, but still keep strumming.

Intro:
There is an echo coming from the G power Chord (5th fret A string, 3rd fret E 
string) and then you play this:--8~3~ which leads into the verse                                       
                               --6~1~
Verse:

E------------------------------------               -----
B------------------------------------               -----
G------------------------------------               -----
D------------------------------------ (Play this 3x)-----
A----5~(5)(5)(5)(5)(5)(5)(5)(5)(5)(5)               -8~3~
E----3~(3)(3)(3)(3)(3)(3)(3)(3)(3)(3)               -6~1~
Parenthesis means mute strings, but still keep strumming

Pre-Chorus:

E-----------
B-----------
G-----------
D----8~~---- (Play this 2x)
A----6~~8~8~
E-------6~5~

Chorus:

E--------------------
B--------------------
G--------------------
D--------8~~~--------  (Play 2x) Strumming is undefined
A----5~~~6~~~8~~~8~~~
E----3~~~----6~~~5~~~

Intro

Verse

Pre-Chorus

Chorus

Bridge:

E------------------------------------------------------------
B------------------------------------------------------------
G-------------------------10-----10---10---------------------
D--------7-----7---7----8----8----------------10-----10---10-
A------5---5----------6--------6----6-------8----8-----------
E----3-------3---3------------------------6--------6----6----

E----------------------
B----------------------
G----------------------
D--------10-----10---10 (Play this 3x)
A------8----8----------
E----5--------5----5---

Pre-Chorus

Chorus:
The chorus is played a little different because there is a little rest in the
beginning, so if you play with the CD you can figure it out.  The chords are
the same just played in a different strum pattern then it goes back to the
original chorus.

Outro Riff:

E-------------------------
B-------------------------
G-------------------------
D----12~8~~-10~~~~~8~~~~~
A----10~6~~-8~~~~~~6~~~~~
E-------------------------

Thats it guys.  Have fun with it and God Bless. (Ablaze2822)

Comments about this tab

No comments/corrections found. Add your own

Complimentary Christian Ringtones
Dadamobile and CGR have teamed up to bring your favorite Christian artists right to your phone. Sign up today and get 10 complementary ringtones!
Tab Country
Did you know CGR has a sister site w/ country guitar tabs? Well we do! Its called Tab Country. It has a great archive with a lot of country tabs.
Rockin Tabs
Are you looking for a site that has rock guitar tabs? Then Rockintabs.com is the place for you. It is a budding site with many rock guitar tabs. Submit your tab today.
Tab Gallery
Tab Gallery has a compilation of christian, rock, and country tabs all in one place. Come visit us.