Guitar Tabs
song title    band name

Join Us Today!

Don't strum alone...
be a part of the largest online Christian music community. Browse thousands of guitar tabs and chat w/ musicians like yourself.


It's Free!

This tab has been rated a 4.14 out of 5 for accuracy. (7 votes)Sorry, but you must be logged in to rate this tab.
Click here to log-in, or you can click here to register.
(Registration is free)

All songs owned by corresponding publishing company. If you make copies of any song on this website, be sure to report your usage to CCLI.
Submitted by: U B the band

Kutless
Winds Of Change
tabbed by U B the band
tunning Db Ab Db Gb Bb Eb

Intro/verse Guitar one:
|--------------------------------------------------------------------|
|--------------------------------------------------------------------|
|-------------------------------------------------------------2-0----|
|------3-----3---3-----3-----3---3------5-----5---5-----5---------3--|
|--1-1---1-1---1--------------------3-3---3-3---3---3-3---3-3--------|
|------------------3-3---3-3---3-------------------------------------|x4

|--------------------------------------------------------------------|
|--------------------------------------------------------------------|
|--------------------------------------------------------------------|
|------3-----3---3-----3-----3---3------5-----5---5-----5-----5---5--|
|--1-1---1-1---1--------------------6-6---6-6---6---6-6---6-6---6----|
|------------------3-3---3-3---3-------------------------------------|

Guitar two echos when Guitar one plays on 4th time: 
|-----------|
|-----------|
|-----------|
|--3--3--5--|
|--1--x--3--|
|-----3-----|

|-----------|
|-----------|
|-----------|
|--3--3--5--|
|--1--x--6--|
|-----3-----|

Chorus:
|---------------------------------------------------|
|---------------------------------------------------|
|-----------------------------------------55555555--|
|--555-7777-55-77-888-7777-88-77-33333333-55555555--|
|--555------55----888------88----33333333-33333333--|
|--555------55----888------88----33333333-----------|x2

verse two Guitar one:
|--------------------------------------------------------------------|
|--------------------------------------------------------------------|
|-------------------------------------------------------------2-0----|
|------3-----3---3-----3-----3---3------5-----5---5-----5---------3--|
|--1-1---1-1---1--------------------3-3---3-3---3---3-3---3-3--------|
|------------------3-3---3-3---3-------------------------------------|x4
                                    ^Guitar two echo 
|--------------------------------------------------------------------|
|--------------------------------------------------------------------|
|--------------------------------------------------------------------|
|------3-----3---3-----3-----3---3------5-----5---5-----5-----5---5--|
|--1-1---1-1---1--------------------6-6---6-6---6---6-6---6-6---6----|
|------------------3-3---3-3---3-------------------------------------|

Guitar two echo  
|--------------|
|--------------|
|--------------|
|--5--3--3--5--|
|--3--1--x--3--|
|--------3-----|

|-----------|
|-----------|
|-----------|
|--3--3--5--|
|--1--x--3--|
|-----3-----|x2

|-----------|
|-----------|
|-----------|
|--3--3--5--|
|--1--x--6--|
|-----3-----|

Chorus:
|---------------------------------------------------|
|---------------------------------------------------|
|-----------------------------------------55555555--|
|--555-7777-55-77-888-7777-88-77-33333333-55555555--|
|--555------55----888------88----33333333-33333333--|
|--555------55----888------88----33333333-----------|x4

Bridge:
|----------------------------------------------|
|----------------------------------------------|
|----------------------------------------------|
|--0x8--3x8--5-5-5xx5-5-5xxxx5-5-5xx5-5-5xxxx--|
|--0----3----3-3-3xx3-3-3xxxx3-3-3xx3-3-3xxxx--|
|--0----3--------------------------------------|x3

Chorus:
|---------------------------------------------------|
|---------------------------------------------------|
|-----------------------------------------55555555--|
|--555-7777-55-77-888-7777-88-77-33333333-55555555--|
|--555------55----888------88----33333333-33333333--|
|--555------55----888------88----33333333-----------|x5

|---------------------------------------------------------|
|---------------------------------------------------------|
|-----------------------------------------555xx555xx5555--|
|--555-7777-55-77-888-7777-88-77-33333333-555xx555xx5555--|
|--555------55----888------88----33333333-333xx333xx3333--|
|--555------55----888------88----33333333-----------------|

Have fun-PMT

Comments about this tab

tabbed_end - 2006-08-13

this tab is better then the others! good job! i rated a 5


CrossbearerJDC9 - 2006-09-16

What do you guys think of this:
(Standard Tuning)
Verse
D------2------2---2-----2-----2-----4-----4---4------4-----6-4-2
A--0-0---0-0----0---------------2-2---2-2---2----2-2---2-2------
E-------------------0-0---0-0-----------------------------------

Prechorus
D------4------4 (Continue as needed till chorus)
A--5-5---5-5--

Chorus:

E------------------------------------------------
B--------------------------2--2--2--------2------
G----------7/7/7----7/7/7--2--2--2-7/7/7--2-7/7/7
E--3--3--3--------3--------2--2--2--------2------
A--3--3--3--------3------------------------------
D--1--1--1--------1------------------------------

Then:
E------------------------
B------------------------
G--0--0--0--0--4--4--4--4 Repeat All of Chorus Twice
D--0--0--0--0--4--4--4--4
A--2--2--2--2--2--2--2--2
E------------------------

Repeat for "I'll be the one who you can cry too...'

Bridge - 'Someday we'll sail away...':
E---------------------------------------------
B---------------------------------------------
G--6-6-6-7-7-7-4-x-x-4-x-x-x-x-4-x-x-4-x-x-x-x
D--6-6-6-7-7-7-4-x-x-4-x-x-x-x-4-x-x-4-x-x-x-x (Repeat 3 times)
A--4-4-4-9-9-9-2-x-x-2-x-x-x-x-2-x-x-2-x-x-x-x
E---------------------------------------------
That sounds better to me.
CrossbearerJDC - Pick Up Your Cross


CrossbearerJDC9 - 2006-09-16

forgot the:

D----2
A-----
E--0-- in the verse - my bad.
CrossbearerJDc- Pick Up Your Cross


U B the band - 2006-09-19

I'll check this out....but right now I don't have my guitar so I'll check umm....later -U B the band


CrossbearerPUYC - 2006-09-29

Arrg! Instead of jamming the 2nd string, 7th fret in the chorus, play the second.

E-------
B--2-2-2
Sorry for the the mistake.
Crossbearer - Pick Up Your Cross


CrossbearerPUYC - 2006-09-29

oh my gosh, I'm stupid. Must have been pretty sleepy when I wrote that. It is (final answer) 1st string 2nd fret, 2nd 2nd fret.

2--1-1-1

Sorry guys.
Crossbearer - Pick Up Your Cross


Naragrath - 2006-09-29

Actually, I think you mean it is 2nd string, 2nd fret. Sounded perfect that way to me.
Nar


the strat guy - 2006-12-07

Thre is an easier way of doing this song.......

i just submited


Oh!Gravity - 2007-02-18

Sounds better in standard tuning.


sac346 - 2007-05-20

CrossbearerJDC9, your corrections are awful. no offense man.


gsusguitar - 2007-06-02

If any sees a half tabbed version of this song later...it was probably me. I forgot to add the 2nd page of it(the tab) to the box that they use for submiting songs. Please forgive me if anyone finds it and doesn't see tabbing for the whole song.


gsusguitar - 2007-06-02

So here is my version... for those who have see the halfway finished version of the song.

Date tabbed: 11/19/06 -12/1/06
Band: Kutless
Album: Hearts Of The Innocent
Song: Winds Of Change

This is 2 steps down from standard tuning. The bridge contains chords that you can play in any other tuning, but to match what Kutless is playing, it needs to be 2 steps down. Enjoy!

Intro:

C------------------------3-3----3-3----3-------------------------------------------------------
F-3-3----3-3------3------------------------------5-5----5-5---5-----5-5----5-5--------------
B-----5-------5-----5----------5-------5---5---------7-------7---7-------7---------9-7-5----
E
G
C

Verse:
Intro 3xs


Pre-Chorus:

C---------------------3-3---3-3---3----------------------------------------------------
F-3-3---3-3---3--------------------------8-8---8-8----8-----8-8-----8-8------8------
B------5-----5---5-------5-----5---5---------7-----7----7--------7--------7-----7----
E
G
C


Chorus:

C-5-5-5-------------5------------------------------------------------------3----------
F-7-7-7-------------7--------------3-3-3---------------3------------------5--------5-
B-7-7-7-------------7--------------5-5-5---------------5------------------5--------7-
E-5-5-5-4-4-4-45--4-4--------5-5-5----4-4-4-4----5-----4-4---------3--------7-
G-5-5-5-------------5------------------------------------------------------3----------
C-5-5-5-------------5------------------------------------------------------3----------
2xs = 1 chorus

Intro
Verse
Pre-chorus
Chorus 2xs

Bridge:

C-0---3--------------------------------------------------------------------------------
F-2---55-(Slide to 4)-(Mute for 2 strums)-(Slide back)-(Slide to 4)------------------
B-2---57-(Slide to 6)-(Mute for 2 strums)-(Slide back)-(Slide to 6)------------------
E-1---37-(Slide to 6)-(Mute for 2 strums)-(Slide back)-(Slide to 6)------------------
G-0---3---------------------------------------------------------------------------------
C-0---3---------------------------------------------------------------------------------

C-----------------------------------------
F-(Mute while strumming)-----------------
B-(Mute while strumming)-----------------
E-(Mute while strumming)-----------------
G-----------------------------------------
C------------------------------------------

C--------------------------------------------------------------------------------
F-5-(Slide to 4)-(Mute for 2 strums)-(Slide back)-(Slide to 4)-------------------
B-7-(Slide to 6)-(Mute for 2 strums)-(Slide back)-(Slide to 6)-------------------
E-7-(Slide to 6)-(Mute for 2 strums)-(Slide back)-(Slide to 6)-------------------
G--------------------------------------------------------------------------------
C--------------------------------------------------------------------------------


C---------------------------------
F-(Mute while strumming)--------
B-(Mute while strumming)--------
E-(Mute while strumming)--------
G--------------------------------
C-------------------------------- 3xs

of Chorus 5xs (Weird effects first half )


Ending:

C-5-5-5------------5---------------------------------------------3
F-7-7-7-------------7----------3-3-3-----------------3----------5
B-7-7-7------------7-----------5-5-5-----------------5----------5
E-5-5-5--4-4-4-4--5---4-4----5-5-5---4-4-4-4------5---4-4---3
G-5-5-5------------5---------------------------------------------3
C-5-5-5------------5---------------------------------------------3

C-------------------------------------------------------------------
F-5-5-(Mute for 2 strokes)---5-5-(Mute for 2 strokes)---5-5-5-5-
B-7-7-(Mute for 2 strokes)---7-7-(Mute for 2 strokes)---7-7-7-7-
E-7-7-(Mute for 2 strokes)---7-7-(Mute for 2 strokes)---7-7-7-7-
G-------------------------------------------------------------------
C------------------------------------------------------------------- Stop suddenly




gsusguitar - 2007-06-02

Remember that when reading the above tab, sometimes the strings will be under themselves. Sorry. I just quickly put it into the comment box and submitted it without thinking.


Add a comment/correction

Complimentary Christian Ringtones
Dadamobile and CGR have teamed up to bring your favorite Christian artists right to your phone. Sign up today and get 10 complementary ringtones!
Tab Country
Did you know CGR has a sister site w/ country guitar tabs? Well we do! Its called Tab Country. It has a great archive with a lot of country tabs.
Rockin Tabs
Are you looking for a site that has rock guitar tabs? Then Rockintabs.com is the place for you. It is a budding site with many rock guitar tabs. Submit your tab today.
Tab Gallery
Tab Gallery has a compilation of christian, rock, and country tabs all in one place. Come visit us.