Guitar Tabs
song title    band name

Join Us Today!

Don't strum alone...
be a part of the largest online Christian music community. Browse thousands of guitar tabs and chat w/ musicians like yourself.


It's Free!

This tab has not yet been rated for accuracy.Sorry, but you must be logged in to rate this tab.
Click here to log-in, or you can click here to register.
(Registration is free)

All songs owned by corresponding publishing company. If you make copies of any song on this website, be sure to report your usage to CCLI.
Submitted by: audioajunkie99

Audio Adrenaline
Adios:Greatest Hits
Goodbye

Verse 


1st Guitar                             
E ------------------|----------|-----------------------|----------------------
B ------------------|----------|-----------------------|----------------------
G ------------------| 4 beats  |-----------------------|----------------------
D --7-7-7-7-7-7-7-7-| of rest  |--7-7-7-7-7-7-7-7---7--|4--4--4--4--4--4--4--4
A --7-7-7-7-7-7-7-7-|----------|--7-7-7-7-7-7-7-7--W7--|4--4--4--4--4--4--4--4
D --7-7-7-7-7-7-7-7-|----------|--7-7-7-7-7-7-7-7---7--|4--4--4--4--4--4--4--4

2nd Guitar
E------------------------------------------------------|----9----9--12--9----9
B------------------------------------------------------|-10---10----------12--
G------------------------------------------------------|----------------------
D------------------------------------------------------|----------------------
A------------------------------------------------------|----------------------
E----------------------------------------------------------------------------
_____________________________________________________________________________

1st Guitar
E---------------------------------------------|
B---------------------------------------------|
G---------------------------------------------|
D------------------------7-7-7-7-7-7-7-7-7--7-|
A------------------------7-7-7-7-7-7-7-7-7-w7-|
E------------------------7-7-7-7-7-7-7-7-7--7-|
2nd Guitar
E----9----9--12--9----9----9----9--12--9----9-|
B-10---10----------12---10---10----------12---|
G---------------------------------------------|
D---------------------------------------------|
A---------------------------------------------|
E---------------------------------------------|
_________________________________________________

1st Guitar
E----------------------------------------------
B----------------------------------------------
G----------------------------------------------
D---4--4--4--4--4--4--4--4---------------------
A---4--4--4--4--4--4--4--4---------------------
E---4--4--4--4--4--4--4--4---------------------
2nd Guitar
E-------9----9--12--9----9----9----9--12--9----9
B----10---10----------12---10---10----------12--
G-----------------------------------------------
D-----------------------------------------------
A-----------------------------------------------
E-----------------------------------------------
___________________________________________________
1st Guitar
E------------------------------------------------|----------------------|----------------------
B------------------------------------------------|----------------------|----------------------
G------------------------------------------------|----------------------|----------------------
D-12-12-12-12-12-12-12-12-12-12-12-12-12-12-12-12|7--7--7--7--7--7--7--7|2--2--2--2--2--2--2--2
A-12-12-12-12-12-12-12-12-12-12-12-12-12-12-12-12|7--7--7--7--7--7--7--7|2--2--2--2--2--2--2--2
E-12-12-12-12-12-12-12-12-12-12-12-12-12-12-12-12|7--7--7--7--7--7--7--7|2--2--2--2--2--2--2--2

2nd Guitar
E-----9-----9--12--9-----9-----9----9--12--9----9|----9----9--12--9----9|----9----9--12--9----9
B-10----10-----------12----10----10----------12--|-10---10----------12--|-10---10----------12--
G------------------------------------------------|----------------------|----------------------
D------------------------------------------------|----------------------|----------------------
A------------------------------------------------|----------------------|----------------------
E------------------------------------------------|----------------------|----------------------

Chorus(THIS IS JUST A GUESS)

E----------------------------------------------------------------------------------------------
B----------------------------------------------------------------------------------------------
G----------------------------------------------------------------------------------------------
D-7-7-7-7-7-7-7-7-7-7-7-7-12-12-12-12-14-14-14-14-14-14-14-14----------------------------------
A-7-7-7-7-7-7-7-7-7-7-7-7-12-12-12-12-14-14-14-14-14-14-14-14----------------------------------
E-7-7-7-7-7-7-7-7-7-7-7-7-12-12-12-12-14-14-14-14-14-14-14-14----------------------------------

E----------------------------------------------------------------------------------------------
B----------------------------------------------------------------------------------------------
G----------------------------------------------------------------------------------------------
D-7-7-7-7-7-7-7-7-7-7-7-7-4-4-4-4-12-12-12-12-12-12-12-12-12-12-12-12-12-12-12-12--------------
A-7-7-7-7-7-7-7-7-7-7-7-7-4-4-4-4-12-12-12-12-12-12-12-12-12-12-12-12-12-12-12-12--------------
E-7-7-7-7-7-7-7-7-7-7-7-7-4-4-4-4-12-12-12-12-12-12-12-12-12-12-12-12-12-12-12-12--------------

Some of the guitar licks

After "I cry with Joy"
E---------------------------------------------------------------------------
B---------------------------------------------------------------------------
G-5^5-----------------------------------------------------------------------
D---------------------------------------------------------------------------
A---------------------------------------------------------------------------
E---------------------------------------------------------------------------


I hope this can help out, being the first tab on this song. 
I know its not perferct, but I hope
other tabbers will use it to further their tabs. 
The first time I heard this song I cried because
of all that Audio A has done for Christian music...
I will never stop loving them.

Adios,
Justin Burdine

Comments about this tab

redeemed_by_God - 2007-04-16

Doesn't sound right in E standard tuning[EADGBe], but it is PERFECT in Drop D tuning[DADGBe].


rawk4god715 - 2007-04-17

great tab. I LUV AUDIO ADRENALINE!!!!! I AM SO SAD THAT THEY'RE QUITTING!!!!!


Add a comment/correction

Complimentary Christian Ringtones
Dadamobile and CGR have teamed up to bring your favorite Christian artists right to your phone. Sign up today and get 10 complementary ringtones!
Tab Country
Did you know CGR has a sister site w/ country guitar tabs? Well we do! Its called Tab Country. It has a great archive with a lot of country tabs.
Rockin Tabs
Are you looking for a site that has rock guitar tabs? Then Rockintabs.com is the place for you. It is a budding site with many rock guitar tabs. Submit your tab today.
Tab Gallery
Tab Gallery has a compilation of christian, rock, and country tabs all in one place. Come visit us.