Guitar Tabs
song title    band name

Join Us Today!

Don't strum alone...
be a part of the largest online Christian music community. Browse thousands of guitar tabs and chat w/ musicians like yourself.


It's Free!

This tab has been rated a 5.00 out of 5 for accuracy. (4 votes)Sorry, but you must be logged in to rate this tab.
Click here to log-in, or you can click here to register.
(Registration is free)

All songs owned by corresponding publishing company. If you make copies of any song on this website, be sure to report your usage to CCLI.
Submitted by: tl_guitarnut

Song: Procrastinating
Band: Stellar Kart
Album: We Can t Stand Sitting Down
Copyright Curb records
Tuning: Standard (EADGBe)

s=slide
x=mute or deaden the string


Intro:
G | -4---|
D | -x---|
A | -2---| a lot
E | -----|


Verse:
e | -------------------------------------------|
B | -------------------------------------------|
G | -4-4-4-4-4-4-4-4-4-4-----------------------|
D | -x-x-x-x-x-x-x-x-x-x-6-6-6-6-6-2-2-2-2-2---| 2x
A | -2-2-2-2-2-2-2-2-2-2-6-6-6-6-6-2-2-2-2-2---|
E | ---------------------4-4-4-4-4-0-0-0-0-0---|


Pre-chorus:
G | -4---|
D | -x---|
A | -2---| a lot
E | -----|


Chorus:
e | --------------------------|
B | --------------------------|
G | -4-4-4-9-9-9--------------|
D | -4-4-4-9-9-9-6-6-6-2-2-2--| 4x
A | -2-2-2-7-7-7-6-6-6-2-2-2--|
E | -------------4-4-4-0-0-0--|


Post-Chorus: 
G | -4---|
D | -x---|
A | -2---| a lot
E | -----|


Verse 2: Bass then
e | ------------------------------------------------------------------|
B | ------------------------------------------------------------------|
G | -4-4-4--4-4-4--4-4-4--4-4-4---------------------------------------|
D | -x-x-x--x-x-x--x-x-x--x-x-x-6-6-6--6-6-6--2-2-2--2-2-2------------| 2x
A | -2-2-2--2-2-2--2-2-2--2-2-2-6-6-6--6-6-6--2-2-2--2-2-2------------|
E | ----------------------------4-4-4--4-4-4--0-0-0--0-0-0------------|


Pre-chorus: include a scratch down on the A string.


Chorus 4x


Then:
G | -4---|
D | -x---|
A | -2---| a lot
E | -----|


Then:
e | --------------------------------------|
B | --------------------------------------|
G | -------4-4-4-------8s11---------------|
D | -2-2-2-4-4-4-2-2-2-8s11-11-11-11-xxxx-| x2
A | -2-2-2-2-2-2-2-2-2-6s-9-11-11-11-xxxx-|
E | -0-0-0-------0-0-0-------9--9--9-xxxx-|


Then:
G | -4-4-4-4-4-4-4-4-4-4-----------------|
D | -x-x-x-x-x-x-x-x-x-x---6---2---------|
A | -2-2-2-2-2-2-2-2-2-2---6---2---------| 
E | -----------------------4---0---------|


Chorus 4x


Ending:
G | -4---|
D | -x---|
A | -2---| a lot
E | -----|


Easy song, but still fun to play.

God Bless,
tl_guitarnut 

Comments about this tab

brain2you - 2006-11-13

really really good job,i cant tell u how much i wanted the tabbed,thnx

-Brain2you


tl_guitarnut - 2007-02-02

Your Welcome.


preludeohiovtec - 2007-02-28

for the chorus the pattern is G 4444
A 4444 2222 6666 4444
D 2222 2222 6666 4444
E 0000 4444 2222


Add a comment/correction

Complimentary Christian Ringtones
Dadamobile and CGR have teamed up to bring your favorite Christian artists right to your phone. Sign up today and get 10 complementary ringtones!
Tab Country
Did you know CGR has a sister site w/ country guitar tabs? Well we do! Its called Tab Country. It has a great archive with a lot of country tabs.
Rockin Tabs
Are you looking for a site that has rock guitar tabs? Then Rockintabs.com is the place for you. It is a budding site with many rock guitar tabs. Submit your tab today.
Tab Gallery
Tab Gallery has a compilation of christian, rock, and country tabs all in one place. Come visit us.