Guitar Tabs
song title    band name

Join Us Today!

Don't strum alone...
be a part of the largest online Christian music community. Browse thousands of guitar tabs and chat w/ musicians like yourself.


It's Free!

This tab has been rated a 4.33 out of 5 for accuracy. (3 votes)Sorry, but you must be logged in to rate this tab.
Click here to log-in, or you can click here to register.
(Registration is free)

All songs owned by corresponding publishing company. If you make copies of any song on this website, be sure to report your usage to CCLI.
Submitted by: relientrocker

hello there,i just figured this out in like ten minutes, so i hope it sounds
good!

intro

e---------------
b---------------
g-pm(66666666)6-
d-pm(66666666)6-     X4
a-pm(44444444)4-
E---------------

 verse

e---------------------------------------------
b---------------------------------------8--666
g-66----------686--6---------666-------8---666
d-66--66--33--686-6-------6--666---3--6----444
a-44--66--33--4644-------6---444--3-----------
E-----44--11------------4--------1------------
                             DUD

intro X1

verse

e---------------------------------------------
b------------------------------------8--666
g-66----------686--6---6------------8---666
d-66--66--33--686-6----6--6-----3--6----444
a-44--66--33--4644-----4-6-----3-----------
E-----44--11------------4-----1------------


chorus
-----------------
b----------------
g-666---------888    X4
d-666-666-333-888
a-444-666-333-666
E-----444-111----



e----------------
b----------------
g-66----------686 X4  after that g-6
d-66--66--33--686                d-6
a-44--66--33--464                a-4
E-----44--11-----

then
---------------------
b--------------------
g-6666-----------8888 
d-6666-6666-3333-8888 X4
a-4444-6666-3333-6666
E------4444-1111-----

intro all pm X3

---------------------
b--------------------
g-6666-----------8888 
d-6666-6666-3333-8888 X4
a-4444-6666-3333-6666
E------4444-1111-----


   Ending
e----------------
b----------------
g-66----------686--   -6-----6
d-66--66--33--686-- X4-6-----6   
a-44--66--33--464--   -4-----4   
E-----44--11-----


good luck 
play with love for the one and only-God

relientrocker


Comments about this tab

mrguitarfreak43 - 2006-12-02

Hey Great tab there were a few mistakes but really close one thing is that there are two guitars during the verse so it goes like this
guitar 1
G|-4--4--4h6p4
D|-6--4--4h6p4
A|-6--6--6h8h6
E|-----------

then guitar two goes what you put
G|-4---------4h6p4--
D|-6--4--1---4h6p4--
A|-6--6--3---6h8h6--
E|----6--3----------

Really good tab though

E|----------------


jimmiej2448 - 2007-03-17

i have played guitar for almost 5 years and this dont sound right at all


go4broke28 - 2008-10-18

yo jimmiej, you could at least tell the guy what was wrong with the tab man. I actually would like to hear your way because I can compare styles. Tell you what man. You post your edition of the song, and I'll play both and tell you which is closer to the real thing. I'm currently working on this song, so I'll try both.

Note: This message is not meant to offend anyone. I realy like this website, and I look forward to hearing from all of you guys on sharing tabs. Thanx!

GuitarHero


Add a comment/correction

Complimentary Christian Ringtones
Dadamobile and CGR have teamed up to bring your favorite Christian artists right to your phone. Sign up today and get 10 complementary ringtones!
Tab Country
Did you know CGR has a sister site w/ country guitar tabs? Well we do! Its called Tab Country. It has a great archive with a lot of country tabs.
Rockin Tabs
Are you looking for a site that has rock guitar tabs? Then Rockintabs.com is the place for you. It is a budding site with many rock guitar tabs. Submit your tab today.
Tab Gallery
Tab Gallery has a compilation of christian, rock, and country tabs all in one place. Come visit us.