Guitar Tabs
song title    band name

Join Us Today!

Don't strum alone...
be a part of the largest online Christian music community. Browse thousands of guitar tabs and chat w/ musicians like yourself.


It's Free!

This tab has been rated a 4.00 out of 5 for accuracy. (2 votes)Sorry, but you must be logged in to rate this tab.
Click here to log-in, or you can click here to register.
(Registration is free)

All songs owned by corresponding publishing company. If you make copies of any song on this website, be sure to report your usage to CCLI.
Submitted by: saxo

Without You
Music and Lyrics by Kirk Franklin
from the CD “Hero”

The song uses a capo on the first fret, however you can play it with no capo and a half step lower.  
I have written it a half step lower without the capo.    

Enjoy!

        Intro
E||--2--------2------------2---------2--3-------3--|------------------------------------------|
B||--3-----3------------3---------3-----0-----0----|--2--------2---------2---------2--3----3--|
G||-----2------------2----------2----------0-------|--------2-------2---------2-------2----2--|
D||------------------------------------------------|-----2-------------2---------2----2h4--2--|
A||------------------------------------------------|--0-------------------------------0-------|
F||--2----------------------------------0----------|------------------------------------------|

--2--------2------------2---------2—3--------3--|-----------------------------------------|
--3-----3------------3---------3----0-----0-----|--2--------2---------2--------2--3----3--|
-----2------------2----------2---------0--------|--------2------2---------2-------2----2--|
------------------------------------------------|-----2------------2---------2----2h4--2--|
------------------------------------------------|--0------------------------------0-------|
--2---------------------------------0-----------|-----------------------------------------|

--2---------2--------2------3h5-----3-----------|-----------------------------------------|
--3------3--------3--------------3--0--------0--|--2--------2----------2-------2--3----3--|
------2-----------------------2-----------0-----|--------2-------2------------------------|
---------------------------------------0--------|-----2-------------2------0s4----2h4--2--|
------------------------------------------------|--0------------------------------0-------|
--2---------------------------------0-----------|-----------------------------------------|

--2---------2-------------------2---3-----------|-----------------------------------------|
--3------3--------3------3----------0-------0---|--2--------2------------------2--3----3--|
------2---------------2------2------------0-----|--------2------2-----2--------2----------|
---------------------------------------0--------|-----2------------2--------2-----2h4--2--|
------------------------------------------------|--0------------------------------0-------|
--2---------------------------------0-----------|-----------------------------------------|

--2---------2----------------2-------2-----------|--3--------3------------3---------7-------|
--3------3-------3-----2----------1-----1-----1--|---------0------------0---------0---------|
------2-------------2----------2-----------2-----|------0-------------0---------0-----------|
-----------------------------1-------------------|--2--------------0------------------------|
-------------------------------------------------|------------------------------------------|
--2----------------------------------------------|----------------------------8----------2--|

-----------2------------2------2------------3--|----------------------------------0---------------|
----------------------------------1------------|--2-------2--------------------2---------0--2-----|
--------2---------2---------2-------------0----|--------2-------2-----2-----2---------3-----------|
-----4---------4-----0--1-----------=--0-------|-----2-------------2-----0------------------------|
--2--------------------------------------------|--0-----------------------------------------------|
-------------------------------------0---------|--------------------------------------2--------2--|

-------------2h5------------2--------2--3----------|----------2----------2--------------------|
------------------------3---1-----1--------------0-|----------2--3-------3---3--------3-------|
----------2--------2-----------2--------------0----|--3----3----------2------0-----0----------|
-------4--------------4-----1--------------2-------|-----2----------4--------2--2-------------|
--0h2----------------------------------------------|--------------2----------3----------------|
----------------------------------------0----------|--3---------------------------------------|

-----------2---------------------------------------|
--------3------------------------------------------|
-----2-----------------2h4--2----------------------|
--0------------------------------4s2--0------------|
-------------------------------------------0h2--0--|
---------------------------------------------------|




Comments about this tab

JCforme - 2006-11-03

can u put this song i chords please? thanks


Add a comment/correction

Complimentary Christian Ringtones
Dadamobile and CGR have teamed up to bring your favorite Christian artists right to your phone. Sign up today and get 10 complementary ringtones!
Tab Country
Did you know CGR has a sister site w/ country guitar tabs? Well we do! Its called Tab Country. It has a great archive with a lot of country tabs.
Rockin Tabs
Are you looking for a site that has rock guitar tabs? Then Rockintabs.com is the place for you. It is a budding site with many rock guitar tabs. Submit your tab today.
Tab Gallery
Tab Gallery has a compilation of christian, rock, and country tabs all in one place. Come visit us.