Guitar Tabs
song title    band name

Join Us Today!

Don't strum alone...
be a part of the largest online Christian music community. Browse thousands of guitar tabs and chat w/ musicians like yourself.


It's Free!

This tab has not yet been rated for accuracy.Sorry, but you must be logged in to rate this tab.
Click here to log-in, or you can click here to register.
(Registration is free)

All songs owned by corresponding publishing company. If you make copies of any song on this website, be sure to report your usage to CCLI.
Submitted by: takeaguesswhodu

the other versions didnt sound right so i just worked this out on my own. 
if you have any corrections, just let me know.

intro (work out the timing of each chord)

guitar 1  (first)            Guitar 2  (comes in when it gets heavier)
e|----------------------|  |-------------------------------|
B|----------------------|  |-------------------------------|
G|--4--11--9--11--------|  |--8--11--9--11-----------------|
D|--4--11--9--11--------|  |--X--11--9--11-----------------|
A|--2--9---7--9---------|  |--6--9---7--9------------------|
E|----------------------|  |-------------------------------|


 Verse 1
e|-----------|
B|-----------|
G|-----------|
D|--6--4--2--|  palm muted
A|--6--4--2--|
E|--4--2--0--|

  Chorus
e|---------------------------------------|
B|---------------------------------------|
G|-----11-----11-------------------------|
D|--2--11--2--11--6----------------------|
A|--2--9---2--9---6-(however many times)-|
E|--0------0------4----------------------|


  Verse 2

 Guitar 1 (alone first time)
e|------------------|
B|------------------|
G|--8-----11--9-----|
D|-----9------------|  (x 4)
A|------------------|
E|------------------|

 Guitar 2 (comes in after second riff) 
e|-----------|
B|-----------|
G|-----------|
D|--6--4--2--|  palm muted  (x1)
A|--6--4--2--|
E|--4--2--0--|



Chorus
e|---------------------------------------|
B|---------------------------------------|
G|-----11-----11-------------------------|
D|--2--11--2--11--6----------------------|
A|--2--9---2--9---6-(however many times)-|
E|--0------0------4----------------------|



 Bridge 

e|---------------|
B|---------------|
G|-----6---------|
D|--4--6--2------|
A|--4--4--2------|
E|--2-----0------|


  Solo (i believe)
e|--------------------------------------------------------|
B|--------------------------------------------------------|
G|------11111111-----11111111---11--9--8--6--9--8--6------|
D|--999-9-9-9-9--999-9-9-9-9----9---9--9--9--9--9--9--9~--|  x2
A|--------------------------------------------------------|
E|--------------------------------------------------------|


 Verse 3
e|-----------|
B|-----------|
G|-----------|
D|--6--4--2--|  palm muted  (x2)
A|--6--4--2--|
E|--4--2--0--|


Chorus
e|---------------------------------------|
B|---------------------------------------|
G|-----11-----11-------------------------|
D|--2--11--2--11--6----------------------|
A|--2--9---2--9---6-(however many times)-|
E|--0------0------4----------------------|



  Ending
e|---------------|
B|---------------|
G|-----6---------|
D|--4--6--2------|
A|--4--4--2------|
E|--2-----0------|


End on
e|------------|
B|------------|
G|--9---------|
D|--9---------|
A|--7---------|
E|------------|


this is my first tab.. and one of my fav songs by Seven Places

so yeah. comment if its wrong


Comments about this tab

No comments/corrections found. Add your own

Complimentary Christian Ringtones
Dadamobile and CGR have teamed up to bring your favorite Christian artists right to your phone. Sign up today and get 10 complementary ringtones!
Tab Country
Did you know CGR has a sister site w/ country guitar tabs? Well we do! Its called Tab Country. It has a great archive with a lot of country tabs.
Rockin Tabs
Are you looking for a site that has rock guitar tabs? Then Rockintabs.com is the place for you. It is a budding site with many rock guitar tabs. Submit your tab today.
Tab Gallery
Tab Gallery has a compilation of christian, rock, and country tabs all in one place. Come visit us.