Guitar Tabs
song title    band name

Join Us Today!

Don't strum alone...
be a part of the largest online Christian music community. Browse thousands of guitar tabs and chat w/ musicians like yourself.


It's Free!

This tab has not yet been rated for accuracy.Sorry, but you must be logged in to rate this tab.
Click here to log-in, or you can click here to register.
(Registration is free)

All songs owned by corresponding publishing company. If you make copies of any song on this website, be sure to report your usage to CCLI.
Submitted by: Klyde

I havent been able to find any good tabs for this song. So me and my friend 
figured it out. It should be right. Its a great song. I have the chords, lead,
and bass line for it.

Song: TELL THE WORLD
Artist: UNITED LIVE
Album: LOOK TO YOU

Verse 1:
F#m   -   D    4x

Pre-Chorus: (Rhythm Guitar can play along with the bass)
F#m        -      D    4x

Chorus:  (Each chord gets 4 beats)
A                                           E

F#m                                      D                    

Verse

Pre-Chorus

Chorus 2x

Bridge
A       Bm              F#m          D  

Chorus 2X

Bridge


BASS GUITAR OPENING RIFF

G|--------------------------------------------
D|-4-4-4-2-2-2-----------------------------
A|-----------------4-4-5-5-5-4-4-4-0-0---
E|--------------------------------------------

LEAD GUITAR

INTRO (After the first two time, the rhythm guitar plays along with the bass)
e|----------------------------------------------
B|----7*-- --------7-7-7-7-7-7-7-7---------
G|--9^11*---------7-7-7-7-7-7-6-6---------         4X
D|---------------------------------------------
A|---------------------------------------------
E|---------------------------------------------

^ = bend
* = strum on it
VERSE
The lead for the verse is all octaves
e|--------------------9-9-9---------------7-7-7---5-5-5-------
B|--7-7-7-7-7-7-------------7-7-7-7----------------------6
G|-------------------6-6-6---------------4-4-4---2-2-2-------       2X
D|--4-4-4-4-4-4-------------4-4-4-4----------------------9--
A|----------------------------------------------------------------
E|-----------------------------------------------------------------

PRE-CHORUS
e|-----------------------
B|------10-107*---
G|-6-6-----------7*---        
D|----------------------
A|----------------------
E|-----------------------

CHORUS: lead guitar follows the chords
Intro 2X
Verse
Pre-Chorus
Chorus 2X
Bridge: the bridge lead guitar part is the same as the prechorus
Chorus 2X
Bridge

Comments about this tab

No comments/corrections found. Add your own

Complimentary Christian Ringtones
Dadamobile and CGR have teamed up to bring your favorite Christian artists right to your phone. Sign up today and get 10 complementary ringtones!
Tab Country
Did you know CGR has a sister site w/ country guitar tabs? Well we do! Its called Tab Country. It has a great archive with a lot of country tabs.
Rockin Tabs
Are you looking for a site that has rock guitar tabs? Then Rockintabs.com is the place for you. It is a budding site with many rock guitar tabs. Submit your tab today.
Tab Gallery
Tab Gallery has a compilation of christian, rock, and country tabs all in one place. Come visit us.