Guitar Tabs
song title    band name

Join Us Today!

Don't strum alone...
be a part of the largest online Christian music community. Browse thousands of guitar tabs and chat w/ musicians like yourself.


It's Free!

This tab has been rated a 4.00 out of 5 for accuracy. (2 votes)Sorry, but you must be logged in to rate this tab.
Click here to log-in, or you can click here to register.
(Registration is free)

All songs owned by corresponding publishing company. If you make copies of any song on this website, be sure to report your usage to CCLI.
Submitted by: siukeungTOG

Another song that ROCKS from ps...

The key of this song is D. Mostly its riffs and some add-ons.

Intro-[The same goes to those part that are similar]
G|----------7-----------7-----------7---7-5----------|
D|------------------------------------------7-6-5----|
A|--5-5---5-----5-5---5-----5-5---5---------------8--|
E|---------------------------------------------------|

Chorus
B|----------------------------------------------6--8-|
G|----------7-----------7-----------7----------------|
D|---------------------------------------------------|
A|--5-5---5-----5-5---5-----5-5---5-----5-5---5------|
E|---------------------------------------------------|

B|---------------------------------------------------|
G|----------7-----------7-----------7-----------5--4-|
D|---------------------------------------------------|
A|--5-5---5-----5-5---5-----5-5---5-----5-5---5------|
E|---------------------------------------------------|

Bridge
G|-7---10--12------7-10--12---------------10-11------|
D|-7---10--12------7-10--12---------10-12------------|
A|-5---8---10------5-8---10---10-12------------------|
E|---------------------------------------------------|

Well, this are the few part that I think is the main part of the riffs and all.
The song is mainly on D(can play the whole song by just playing D)
Nevertheless....IT ROCKS!!!!!!!

Pls comment..this is my 1st tab time and hope Im right...pls correct me if Im wrong...
Thx, because I NEED YOUR COMMENT!!!

Comments about this tab

salt&light - 2007-02-27

looks and sounds good mate but i think u missed atiny lil tab. two 7s on the end of the riff as ive added. otherwise it doesnt seem to fit right.
nice work!

Intro-[The same goes to those part that are similar]
G|----------7-----------7-----------7--7-7-5----------|
D|------------------------------------------7-6-5----|
A|--5-5---5-----5-5---5-----5-5---5---------------8--|
E|---------------------------------------------------|


jakem - 2007-03-20

this is just about BANG ON!!
well done! although there are other ways to play this, but what youve done here is brilliant!


Azzaintemple - 2007-04-21

yer..the song is actually in Drop D...meaning you tune the low E down to a D...and there are alot of shortcuts that u can use in the tag riff...such as using the open D string instead of playing the D note on the A string...and in the part where the notes descend quikly ... instead of playing the 6th note on the A string 8th fret....just slide the same finger you used to play the riff down a tone ...its the same note...but eacher...sounds better


Azzaintemple - 2007-04-21

"same note...but eacher"....lets make that easier...not eacher...typo :)


Azzaintemple - 2007-04-21

oh..and in the bridge...since its Drop D ...it goes

D 0 3 5 D - - - - 3
A 0 3 5 A - - 3 5 - 5
D 0 3 5 X2 D 3 5 - - - -


thats not the easiest tab to understand..but im sure u can decipher it


Azzaintemple - 2007-04-21

wow ....the thingy changed it to make it even worse...
ok lets try this

G|----------------------------------------------------|
D|-0--3--5----0--3--5-----------3---------------------|
A|-0--3--5----0--3--5-------3-5---5-------------------|
D|-0--3--5----0--3--5----3-5--------------------------|

ok that is so much easeir to understand....i need to try and delete that other comment...


Azzaintemple - 2007-04-23

oh im so good at this Tabbing thing....not

G|----------------------------------------------------|
D|-0--3--5----0--3--5------------3--------------------|
A|-0--3--5----0--3--5--------3-5---5------------------|
D|-0--3--5----0--3--5----5-7--------------------------|


sneakerlover - 2007-05-12

hey guys...it's me siukeungtog..i changed my username..
yea..it's on drop D
realise it when i was toying my guitar around with drop D and C...hehe..
yea..it's easier to play it with drop D...except you need to quicken your fingers to get into the right position..hehe...
thx guys for you good feedback..God bless


whatisthis - 2007-09-15

is it just me or dus the bridge look bit like smoke on da water intro XD


Add a comment/correction

Complimentary Christian Ringtones
Dadamobile and CGR have teamed up to bring your favorite Christian artists right to your phone. Sign up today and get 10 complementary ringtones!
Tab Country
Did you know CGR has a sister site w/ country guitar tabs? Well we do! Its called Tab Country. It has a great archive with a lot of country tabs.
Rockin Tabs
Are you looking for a site that has rock guitar tabs? Then Rockintabs.com is the place for you. It is a budding site with many rock guitar tabs. Submit your tab today.
Tab Gallery
Tab Gallery has a compilation of christian, rock, and country tabs all in one place. Come visit us.