Guitar Tabs
song title    band name

Join Us Today!

Don't strum alone...
be a part of the largest online Christian music community. Browse thousands of guitar tabs and chat w/ musicians like yourself.


It's Free!

This tab has not yet been rated for accuracy.Sorry, but you must be logged in to rate this tab.
Click here to log-in, or you can click here to register.
(Registration is free)

All songs owned by corresponding publishing company. If you make copies of any song on this website, be sure to report your usage to CCLI.
Submitted by: SuperMonkey

Title: The Stone Was Rolled Away
Author/Artist: Three Crosses (written with Jars of Clay)
Album: Jefferson Street ((c): 1996 LifeSong Music Press/Pogostick Music/Paragon Music)
Transcribed by: Brian Germer
Submitted by: Brian Bender (boyonastring4@gmail.com)

EABEBE tuning with a capo on the third fret.
ALL TAB IS RELATIVE TO THE CAPO.**

Main riff: 
----------0-------------0----0-----------0-------------0----0----
----------0--0----------0--0-0-----------0--0----------0--0-0----
-------0--0--0-------0--0--0-0--------0--0--0-------0--0--0-0----
--0h2--2--------2h4--4-----------0h2--2--------2h4--4------------
--0-------------0----------------0-------------0-----------------
-----------------------------------------------------------------
                                                                              

--------0---------0----0------0---------0----0----|-|------------
--------0--0---0--0--0-0---0--0--0---0--0--0-0----|-|------------
--0--0--0--0---2--0--0-0---5--0--0---4--0--0-0----|-|------------
--0--0---------0-----------0---------0------------|-|------------
--2--2--------------------------------------------|-|------------
--0--0--------------------------------------------|-|------------
                                                                              

-----------4------0----------------------------------------------
-----------0------0------5------5-------2------------------------
-----------4------0------0------0-------0------------------------
-----------0------0------5------5-------2------------------------
-----------4------2------0------0-------0------------------------
------------------0------4------5-------2------------------------
 Chords:  Em      G     C/B     C      Am                                     

Verse 1: Use main riff until noted
C
G 
C
Em*stop main riff 
Am C/B C G 
Am C/B C G  

Chorus: Use main riff
4x

Verse 2

Chorus w/variations

solo: I did not want to tab the whole thing but here iss the formations you 
need to play it:
e----10---8----9--------------
b----8----8----8--------------
g-----------------------------
Just listen to it and use these formations.  It is a very common rock techique 
and is used by Collective Soul and many others.  In fact, I redid 
"In My Life" (Beatles) in EABEBE and used thesame type of solo.

That is about it.  The song just goes on and on in a G  C  progression.  
I do not care for Three Crosses that much and the end of the song is their 
influence in the song.  In my humble opinion, I think JOC should have 
kept the song for their own album.  Anyway, I hope this helps... 

Comments about this tab

No comments/corrections found. Add your own

Complimentary Christian Ringtones
Dadamobile and CGR have teamed up to bring your favorite Christian artists right to your phone. Sign up today and get 10 complementary ringtones!
Tab Country
Did you know CGR has a sister site w/ country guitar tabs? Well we do! Its called Tab Country. It has a great archive with a lot of country tabs.
Rockin Tabs
Are you looking for a site that has rock guitar tabs? Then Rockintabs.com is the place for you. It is a budding site with many rock guitar tabs. Submit your tab today.
Tab Gallery
Tab Gallery has a compilation of christian, rock, and country tabs all in one place. Come visit us.