Guitar Tabs
song title    band name

Join Us Today!

Don't strum alone...
be a part of the largest online Christian music community. Browse thousands of guitar tabs and chat w/ musicians like yourself.


It's Free!

This tab has not yet been rated for accuracy.Sorry, but you must be logged in to rate this tab.
Click here to log-in, or you can click here to register.
(Registration is free)

All songs owned by corresponding publishing company. If you make copies of any song on this website, be sure to report your usage to CCLI.
Submitted by: SuperMonkey

Title: Everything In Between
Artist: Jars of Clay
Album: Prince of Egypt Sdtrk (c1998 Bridge Building Music/Pogostick Music(BMI)/
admin by Brentwood-Benson Music c1998 Zomba Recording Corp. 
(Silvertone/Essential Records))
Transcribed by: Brian Germer
Submitted by: Brian Bender (boyonastring4@gmail.com)

*Tune all guitars down 1/2 step -> (Eb,Ab,Db,Gb,Bb,Eb)
*Chords below not actual chords but chord postitions in the tuning*
**You can also use bar chords for the verse, the chord positions here are 
just my personal preferences.**

Chords Positions: 
Eb------------------------------3------2------3------3------2------1---|
Bb---2------3-------------------3------3------3------3------3------1---|
Gb---2------2------4-----2------0------2------0------0------2------2---|
Db---2------2------4-----4------0------0------0------2------0------3---|
Ab---0------0------2-----4------2-------------2------3-------------3---|
Eb-----------------------2------3---------------------------2------1---|
     A     D/A     B     F#     G      D     G/B     C2    D/F#    F

Intro:  A  D/A  A  B  F#  B   A   B

Verse 1:
A D/A A          
B F# B A B
A D/A A B   
F# A G            

Chorus:
D G/B C2  
D G/B C2
D G/B C2
G D/F# F   

Intro
Verse 2: same as before

Chorus
Refrain: Very Punchy(strum on the downbeat)
C2 Em G F 
C2 Em Bm C2

Solo: There are three different guitar tracks that make up this solo.
  Guitar 1 - left side of mix, electric with slide
  Guitar 2 - left side of mix, electric with slide
  Guitar 3 - right side of mix, electric no slide
 (you can use a slide on guitar 3, but it is hard to play)

Gtr.1
----------------------------------7------------------------------------------|
--/7----/10---5----------/7------7-----5-----------/7-------/8-------------|
--/7-----------5----------/7------7-----5-----------/7-----------------------|
--/7-----------5----------/7------7-----5-----------/7-----------------------|
-----------------------------------------------------------------------------|
-----------------------------------------------------------------------------|
Gtr.2                                                                        |         
-------------------------------------------------------------/10---8--------|
---------10---------------------------/5------------------------------------|
-----------------------------------------------------------------------------|
-----------------------------------------------------------------------------|
-----------------------------------------------------------------------------|
-----------------------------------------------------------------------------|
Gtr.3                                                                        |
---------------75-----------------------------------------------------------|
--------------------87-7p5---53--------7-8-7-8-7-8-/10vv-------------------|
----------------------------7------------------------------------------------|
-----------------------------------------------------------------------------|
-----------------------------------------------------------------------------|
-----------------------------------------------------------------------------|
                                                                              

Gtr.1
------------------------------------------------||   Key:   /=slide  vv=vibrato
---------------/10-----------8-----------/7----||          b=bend   r=return
---------------/10------------------------/7----||          h=hammer-on
---------------/10------------------------/7----||
------------------------------------------------||
------------------------------------------------||
Gtr.2                                           ||                                  
------------------------------------------------||
-----------------------------8-----------------||
------------------------------------------/7----||
------------------------------------------------||
------------------------------------------------||
------------------------------------------------||
Gtr.3                                           ||
---10---10----12b13r12-10-----------------------||
-10--10----10-------------13-13b15r13-10--/15---||
------------------------------------------------||
------------------------------------------------||
------------------------------------------------||
------------------------------------------------||
                                                                              
Chorus
Outro: electric is playing the chords with slide (similar to Gtr.1 in solo)
F Em
F Em

Comments about this tab

No comments/corrections found. Add your own

Complimentary Christian Ringtones
Dadamobile and CGR have teamed up to bring your favorite Christian artists right to your phone. Sign up today and get 10 complementary ringtones!
Tab Country
Did you know CGR has a sister site w/ country guitar tabs? Well we do! Its called Tab Country. It has a great archive with a lot of country tabs.
Rockin Tabs
Are you looking for a site that has rock guitar tabs? Then Rockintabs.com is the place for you. It is a budding site with many rock guitar tabs. Submit your tab today.
Tab Gallery
Tab Gallery has a compilation of christian, rock, and country tabs all in one place. Come visit us.