Guitar Tabs
song title    band name

Join Us Today!

Don't strum alone...
be a part of the largest online Christian music community. Browse thousands of guitar tabs and chat w/ musicians like yourself.


It's Free!

This tab has been rated a 4.00 out of 5 for accuracy. (2 votes)Sorry, but you must be logged in to rate this tab.
Click here to log-in, or you can click here to register.
(Registration is free)

All songs owned by corresponding publishing company. If you make copies of any song on this website, be sure to report your usage to CCLI.
Submitted by: SuperMonkey

Song: Tea and Sympathy 
Written by: Jars of Clay
Album:  Much Afraid (Copyright 1997 BridgeBuilding Music (BMI)/
Pogostick Music (BMI))
Tabbed by: erik wieder (yomkippur@hotmail.com)
Submitted by: Brian Bender (boyonastring4@gmail.com)

This is just a different way to play it than the version already on the site.

Standard Guitar tuning 

e--3---3---0----0-----0----3---3-----2---2---0-----3----0----0---0---
B--3---1---3----2-----3----3---7-----3---3---2-----0----1----0---2---
G--0---2---0----0-----0----0---6-----2---4---2-----2----0----0---2---
D--0---3---2----2-----2----2---6-----0---4---2-----0----2----2---2---
A--2---0---2----0-----0----3---3-----x---2---0-----0----0----2---0---
E--3---x---0----x-----x----0---3-----x---x---2-----3----x----0---0---
   G   F2  Em7  A7  A7sus  C2 Csus4  D   Bm  F#m7  G2   Am7 Em   A

e---2---2----0---1----1------0--------
B---0---0----3---1----3------3--------
G---2---2----2---3----2------2--------
D---1---2----0---3----3------2--------
A---2---2----x---1----1------0--------
E---x---0----x---0----0------0--------
   B7 B7sus  D2  Bb2  Bbmaj7 Asus

Verse:
G
F2 Em7 G
F2 Em7
A7 A7sus A7
Em7 D C2  Csus4 
G
F2 Em7 G
F2 Em7
A7 A7sus A7
Em7 D C2

Chorus:
D Bm F#m7
G2 D
Bm Am7 Em

Verse:
A
G D A
G F#m7
B7 B7sus B7       
F#m7 E     

Chorus:
D Bm F#m7
G2
D Bm Am7 Em
G

Bridge:
D2 C2 Bb2 C2 D2 C2 Bb2 Bbmaj7

Verse:
G
F2 Em7 G
F2              
Em7 A7 A7sus A7 
Em7 D  C2

Chorus 2X

Ending:
D2 C2 Bb2 Asus A   
D2 C2      
Bb2 Asus A   

D2 C2 Bb2 A7sus A7  D

Comments about this tab

tuned2g - 2006-10-11

a few minor details here and there didn't quite sound right... and not sure about the bridge, but nice job!


Add a comment/correction

Complimentary Christian Ringtones
Dadamobile and CGR have teamed up to bring your favorite Christian artists right to your phone. Sign up today and get 10 complementary ringtones!
Tab Country
Did you know CGR has a sister site w/ country guitar tabs? Well we do! Its called Tab Country. It has a great archive with a lot of country tabs.
Rockin Tabs
Are you looking for a site that has rock guitar tabs? Then Rockintabs.com is the place for you. It is a budding site with many rock guitar tabs. Submit your tab today.
Tab Gallery
Tab Gallery has a compilation of christian, rock, and country tabs all in one place. Come visit us.