Guitar Tabs
song title    band name

Join Us Today!

Don't strum alone...
be a part of the largest online Christian music community. Browse thousands of guitar tabs and chat w/ musicians like yourself.


It's Free!

This tab has not yet been rated for accuracy.Sorry, but you must be logged in to rate this tab.
Click here to log-in, or you can click here to register.
(Registration is free)

All songs owned by corresponding publishing company. If you make copies of any song on this website, be sure to report your usage to CCLI.
Submitted by: Chode1988

Hey guys, this is my first attempt at writing a tab... 
I just got the new EP called "Nothing Comes For Free" and it is amazing. I 
thought Id try to tab this new song out for everyone to learn.  Please feel 
free to comment/correct anything about it.  Its not the full song, but just 
what I have so far transcribed.

-------------------------------------------------------------------------------
			     OUR ESCAPE - Pillar
-------------------------------------------------------------------------------
Tabbed by: Bob


Tuning: Drop C (Low to High, CGCFAD)

With Delay (about 170 ms)
D|---------------------------------------------------------------------------|
A|---------------------------------------------------------------------------|
F|---------------------------------------------------------------------------|
C|---------------------------------------------------------------------------|
G|---------------------------------------------------------------------------|
C|---7------3---0-----------7------3---0-------------------------------------|

With distortion, without delay
(This is before the verses and it is also the chorus)
D|---------------------------------------------------------------------------|
A|---------------------------------------------------------------------------|
F|---------------------------------------------------------------------------|
C|---------------------------------555-----777-------------------------------|
G|--5-7-7--5-7-10-10--10-12-10-3-------5-------------------------------------|
C|--5-7-7--5-7-10-10--10-12-10-3-------5-------------------------------------|

D|---------------------------------------------------------------------------|
A|---------------------------------------------------------------------------|
F|---------------------------------------------------------------------------|
C|---------------------------------------------------------------------------|
G|--3-5-7-7--5-7-10-10--10-12-10-3---555-0-----------------------------------|
C|--3-5-7-7--5-7-10-10--10-12-10-3-------0-----------------------------------|


(played throughout the verses)
D|---------------------------------------------------------------------------|
A|----------------8----------------------------------------------------------|
F|------7-----7---------7-----7h9--------------------------------------------|
C|--7-7---7-7---7---7-7---7-7------------------------------------------------|
G|---------------------------------------------------------------------------|
C|---------------------------------------------------------------------------|

D|---------------------------------------------------------------------------|
A|---------------------------------------------------------------------------|
F|------7-----7-7---7------9-8-----------------------------------------------|
C|--7-7---7-7-----7----7-7---------------------------------------------------|
G|---------------------------------------------------------------------------|
C|---------------------------------------------------------------------------|

Comments about this tab

No comments/corrections found. Add your own

Complimentary Christian Ringtones
Dadamobile and CGR have teamed up to bring your favorite Christian artists right to your phone. Sign up today and get 10 complementary ringtones!
Tab Country
Did you know CGR has a sister site w/ country guitar tabs? Well we do! Its called Tab Country. It has a great archive with a lot of country tabs.
Rockin Tabs
Are you looking for a site that has rock guitar tabs? Then Rockintabs.com is the place for you. It is a budding site with many rock guitar tabs. Submit your tab today.
Tab Gallery
Tab Gallery has a compilation of christian, rock, and country tabs all in one place. Come visit us.