Guitar Tabs
song title    band name

Join Us Today!

Don't strum alone...
be a part of the largest online Christian music community. Browse thousands of guitar tabs and chat w/ musicians like yourself.


It's Free!

This tab has not yet been rated for accuracy.Sorry, but you must be logged in to rate this tab.
Click here to log-in, or you can click here to register.
(Registration is free)

All songs owned by corresponding publishing company. If you make copies of any song on this website, be sure to report your usage to CCLI.
Submitted by: countstoneula

The is how Bob plays the intro off of the Beyond Belief movie that 
Petra made in a time before DVDs.  Some of the strumming may be wrong for the
quick parts with lots of strumming...so just use your ear for those parts.

e-----------------------------------------------------------------------------
b-----------------------------------------------------------------------------
g-----999-------------------------------------------------99999-----99999-----
d-----999--------77-777-----------99-99----9-------99-999-99999-999-99999-----
a---------119-9-77-777--9/11-11--99-99----9-11-11-99-999-------999-----------
e---------------------------------------12------------------------------------

e-----------------------------------------------------------------------------
b-----------------------------------------------------------------------------
g-------------------------99--------------------------------------------------
d--999-99999-999----------99--999-99999--------99-777-77777-------------------
a--999-99999-999-11-11-11-----999-99999--11-11-99-777-77777-999-11-11-11------
e-----------------------------------------------------------------------------

e--------------------------------------
b--------------------------------------
g----------999-------------999---------
d------999-999---------999-999---------
a---11-999-------11-11-999-------------
e--------------------------------------

Here are the basic chords as well - Bob probably used more complex 
versions of them because he ussually does.  But this should help.

Verses:
E  B  A  B  A  B  E

Chorus
E  B  
C#m  B  E
C#m  B  E 
E  B  
C#m  B  E
C#m  B  E     (B*) 

*Hold the B durring the whoa!!!!!! part 
which is into the intro solo when it repeats   

Bridge
A B C#m E C#m  (Quick)
A   B
A B C#m E C#m  (Quick)
A   B
E A E A E A E B

The bridge goes right into the solo.  Someone else has already tabbed 
the solo pretty accurately
So I wont bother to resubmit the same thing.
This song is really fun to play and jam with.  I hope this helps you.
There may be mistakes I dont feel like checking it over.
God Bless

Comments about this tab

No comments/corrections found. Add your own

Complimentary Christian Ringtones
Dadamobile and CGR have teamed up to bring your favorite Christian artists right to your phone. Sign up today and get 10 complementary ringtones!
Tab Country
Did you know CGR has a sister site w/ country guitar tabs? Well we do! Its called Tab Country. It has a great archive with a lot of country tabs.
Rockin Tabs
Are you looking for a site that has rock guitar tabs? Then Rockintabs.com is the place for you. It is a budding site with many rock guitar tabs. Submit your tab today.
Tab Gallery
Tab Gallery has a compilation of christian, rock, and country tabs all in one place. Come visit us.