Guitar Tabs
song title    band name

Join Us Today!

Don't strum alone...
be a part of the largest online Christian music community. Browse thousands of guitar tabs and chat w/ musicians like yourself.


It's Free!

This tab has been rated a 4.00 out of 5 for accuracy. (1 vote)Sorry, but you must be logged in to rate this tab.
Click here to log-in, or you can click here to register.
(Registration is free)

All songs owned by corresponding publishing company. If you make copies of any song on this website, be sure to report your usage to CCLI.
Submitted by: Fuzzymug18

Standard Tuning
Capo 1

INTRO & VERSE

Just finger these chords while mute strumming the riff below
 
           C                          C/G                        Fsus2
e---------------------------------------------------------------------
B---------------------------------------------------------------------
G----------------- -----------------------0-h2--0----0-h2--0-h2-------
D---------0-h2--0--------0-h2--0-------------------------------2p-0---             
A----3-3--------------------------------------------------------------
E--------------------3-3-------------1-1------------------------------ 


Chorus

     C                     C/G                 Fsus2
e-------------------------------------------------
B--------1-----------1------------ 1---------1----
G--0--0--0-----------0------------0---------2p0---
D--2--2--2-----2--2--2-----2--2-- 2---2--2--2-----
A--3--3--3-----x--x--x-----2--2-- 2---2--2--------
E--x--x--x-----3--3--3-----1--1---1---1--1--------


Bridge

Am     G/B  Csus4  G5

Fsus2 G/B  Csus4   G5   Fsus2<---- (play for for 3 bars [aka 12 counts])




Am          G/B   Csus4   G5    Fsus2
                                                                                                                                    
e--0-----3----3----3-----3                                     
B--1-----3----3----3-----1                                   
G--2-----0----0----0-----0                                       
D--2-----0----0----0-----2                                      
A--0-----2----3----x-----2                                       
E--x-----x----x----3-----1   
                                                                 
The last chord (Fsus2) is played like this:            

3   Pinkie
1   Index
0   XXX
2   Ring
2   Middle
1   Thumb

The song continues with a few more chorus and the outro,
which has the same chords as the Chorus


OUTRO (2nd Chorus/Bridge)

 

Comments about this tab

Pilgrim And I - 2008-02-12

I'm used to playing it in standard tuning with a capo on the second fret, but I bet this would work too. The intro riff was right on. The main problem for me (the reason why it's 4 stars instead of five) was that your G/B was WAY off. You had it tabbed like this D-2- and if you play that, it sounds awful.
A-2-
E-1-
The rest was pretty good. I'd give it a four, if you fix the G/B, it's a five.


Pilgrim And I - 2008-02-12

whoops, it's a C/G, don't know what I was thinking. ha ha.


Pilgrim And I - 2008-02-12

I found one more thing. Sorry to be so critical! On the intro you put it as
D-2p0-- 2po-2p0-. I think he plays it sliding. Like this: D-2p0--1s2p0-1s2p0-
A--------------0 A-----------------2.


Add a comment/correction

Complimentary Christian Ringtones
Dadamobile and CGR have teamed up to bring your favorite Christian artists right to your phone. Sign up today and get 10 complementary ringtones!
Tab Country
Did you know CGR has a sister site w/ country guitar tabs? Well we do! Its called Tab Country. It has a great archive with a lot of country tabs.
Rockin Tabs
Are you looking for a site that has rock guitar tabs? Then Rockintabs.com is the place for you. It is a budding site with many rock guitar tabs. Submit your tab today.
Tab Gallery
Tab Gallery has a compilation of christian, rock, and country tabs all in one place. Come visit us.