Guitar Tabs
song title    band name

Join Us Today!

Don't strum alone...
be a part of the largest online Christian music community. Browse thousands of guitar tabs and chat w/ musicians like yourself.


It's Free!

This tab has been rated a 5.00 out of 5 for accuracy. (1 vote)Sorry, but you must be logged in to rate this tab.
Click here to log-in, or you can click here to register.
(Registration is free)

All songs owned by corresponding publishing company. If you make copies of any song on this website, be sure to report your usage to CCLI.
Submitted by: tl_guitarnut

Song: Shattered Life
Artist: Seventh Day Slumber
Album: Once Upon a Shattered Life
Copyright Bec Records 
Tuning: Drop D (DADGBe)


Intro Lead Guitar:
e | --------------------------------------------------------------------------|
B | --------------------------------------------------------------------------|
G | -------10-9-10---------10--------10-----------7----------10-------10------|
D | --7-----------------8-----8----8----8-----7----7-------8----8----8---8----| 2x
A | -5--5------------------------------------5--5-----5-----------------------|
D | ------------------8----------10-----------------------8-------10----------|


Verse 1 Lead Guitar:
e | --------------------------------------------------------------------------|
B | --------------------------------------------------------------------------|
G | -------10-9-10---------10--------10-----------7----------10-------10------|
D | --7-----------------8-----8----8----8-----7----7-------8----8----8---8----| 2x
A | -5--5------------------------------------5--5-----5-----------------------|
D | ------------------8----------10-----------------------8-------10----------|


Then Lead:
e | --------------------------------------------------------------------------|
B | --------------------------------------------------------------------------|
G | -------10-9-10---------10--------10-----------7----------10-------10------|
D | --7-----------------8-----8----8----8-----7----7-------8----8----8---8----| 2x
A | -5--5------------------------------------5--5-----5-----------------------|
D | ------------------8----------10-----------------------8-------10----------|


Rhythm:
e | --------------------------|
B | --------------------------|
G | --------------------------|
D | -10h12--12----8----10-----| 3x
A | -10h12--12----8----10-----|
D | -10h12--12----8----10-----|


Then on 4th time Rhythm:
D | -10h12--12---10---8--|
A | -10h12--12---10---8--|
D | -10h12--12---10---8--|


Pre-Chorus:
e | --------------------|
B | --------------------|
G | --------------------|
D | -5-5-5-5-8-8-8-8----| Stop
A | -5-5-5-5-8-8-8-8----|
D | -5-5-5-5-8-8-8-8----|


Then:
A | -7h8-8--|


Chorus:
e | ----------------------------------|
B | ----------------------------------|
G | ----------------------------------|
D | -0-0-0-8-8-8-10-10-10-10----------| 3x
A | -0-0-0-8-8-8-10-10-10-10--7h8-8---|
D | -0-0-0-8-8-8-10-10-10-10----------|



Then:
D | -8-8-8-10-10-10-|
A | -8-8-8-10-10-10-|
D | -8-8-8-10-10-10-|


Post-Chorus:
e | --------------------------------------------------------------------------|
B | --------------------------------------------------------------------------|
G | -------10-9-10---------10--------10-----------7----------10-------10------|
D | --7-----------------8-----8----8----8-----7----7-------8----8----8---8----| 2x
A | -5--5------------------------------------5--5-----5-----------------------|
D | ------------------8----------10-----------------------8-------10----------|


Verse 2: Same as verse 1


Pre-Chorus


Chorus


Bridge:
e | ---------------------------------------|
B | ---------------------------------------|
G | -7-7-7-7-7-7-3-3-3-3-3-3-5-5-5-5-5-5---| 4x
D | ---------------------------------------|


Then:
A | -7h8-8--| 


Chorus, only play that last part twice.


Ending:
e | -------------|
B | -------------|
G | -7-10-10-10--|
D | -x--x--x--x--| 2x
A | -5--8--8--8--|
D | -------------|


End on:
G | -12--|
D | --x--| 
A | -10--|


God Bless,
tl_guitarnut

Comments about this tab

No comments/corrections found. Add your own

Complimentary Christian Ringtones
Dadamobile and CGR have teamed up to bring your favorite Christian artists right to your phone. Sign up today and get 10 complementary ringtones!
Tab Country
Did you know CGR has a sister site w/ country guitar tabs? Well we do! Its called Tab Country. It has a great archive with a lot of country tabs.
Rockin Tabs
Are you looking for a site that has rock guitar tabs? Then Rockintabs.com is the place for you. It is a budding site with many rock guitar tabs. Submit your tab today.
Tab Gallery
Tab Gallery has a compilation of christian, rock, and country tabs all in one place. Come visit us.