Guitar Tabs
song title    band name

Join Us Today!

Don't strum alone...
be a part of the largest online Christian music community. Browse thousands of guitar tabs and chat w/ musicians like yourself.


It's Free!

This tab has been rated a 4.67 out of 5 for accuracy. (3 votes)Sorry, but you must be logged in to rate this tab.
Click here to log-in, or you can click here to register.
(Registration is free)

All songs owned by corresponding publishing company. If you make copies of any song on this website, be sure to report your usage to CCLI.
Submitted by: U B the band

Thousand Foot Krutch
Everyone Like Me
Tabbed by:U B the band
tuning-D A D G B E

h-hammer
*-palm mute

Listen to the cd to hear all of the parts-PMT

Intro/verse Guitar 1: 00:00
E)-------------------------------------------------------------|
B)-------------------------------------------------------------|
G)-------------------------------------------------------------|
D)-------------------------------------------------------------|
A)------5-----------5-----------5---------5-----5-----5--------|
D)--0-0---0---0-0-0---0---0-0-0---0---8-8---8-8---8-7---0-2-3--|x6

Guitar 2: 00:23 palm mute
E)------------------------------------------------------------------------|
B)------------------------------------------------------------------------|
G)--10-10-9-9-5-5-7-7-10-10-9-9-5h7-10-10-9-9-10-10-12-12-10-10-9-9-10-9--|
D)------------------------------------------------------------------------|
A)------------------------------------------------------------------------|
D)------------------------------------------------------------------------|x2

Guitar 3: 00:23 palm muted fill-in...listen to CD
E)-----------------------------------|
B)-----------------------------------|
G)-----------------------------------|
D)-----------------------------------|
A)--0000-0000-0000--8888-7777-0-2-3--|
D)--0000-0000-0000--8888-7777-0-2-3--|x2

Pre-chorus: 00:35
E)-------------------|
B)-------------------|
G)-------10------12--|
D)------8------10----|
A)----8------10------|
D)--8------10--------|

Chorus: 00:41
E)-----------------------------------------|
B)-----------------------------------------|
G)-----7-7---7-7---7-----------------------|
D)-----7-7---7-7---7-----8-8-----7-7--8-7--|
A)-----5-5---5-5---5-----8-8-----7-7--5-5--|
D)--0-0---0-0----0---8-8-8-8-7-7-7-7--5-5--|x4
    * *   * *    *   * *     * *
verse two Guitar 1: 01:05
E)-------------------------------------------------------------|
B)-------------------------------------------------------------|
G)-------------------------------------------------------------|
D)-------------------------------------------------------------|
A)------5-----------5-----------5---------5-----5-----5--------|
D)--0-0---0---0-0-0---0---0-0-0---0---8-8---8-8---8-7---0-2-3--|x4

Guitar 2: 01:17 palm mute
E)------------------------------------------------------------------------|
B)------------------------------------------------------------------------|
G)--10-10-9-9-5-5-7-7-10-10-9-9-5h7-10-10-9-9-10-10-12-12-10-10-9-9-10-9--|
D)------------------------------------------------------------------------|
A)------------------------------------------------------------------------|
D)------------------------------------------------------------------------|x2

Guitar three: 01:17 palm muted fill-in...listen to CD
E)-----------------------------------|
B)-----------------------------------|
G)-----------------------------------|
D)-----------------------------------|
A)--0000-0000-0000--8888-7777-0-2-3--|
D)--0000-0000-0000--8888-7777-0-2-3--|x2

Pre-chorus: 01:29
E)-------------------|
B)-------------------|
G)-------10------12--|
D)------8------10----|
A)----8------10------|
D)--8------10--------|

Chorus: 01:35
E)-----------------------------------------|
B)-----------------------------------------|
G)-----7-7---7-7---7-----------------------|
D)-----7-7---7-7---7-----8-8-----7-7--8-7--|
A)-----5-5---5-5---5-----8-8-----7-7--5-5--|
D)--0-0---0-0----0---8-8-8-8-7-7-7-7--5-5--|x4
    * *   * *    *   * *     * *
Bridge: 01:58
E)----------------------------------------------------------|
B)----------------------------------------------------------|
G)--------7---------------------------7---------------------|
D)------7---7----00-0-3-00-0-5------7---7----00-0-3-00-0-3--|
A)----5-------5--00-0-3-00-0-5----5-------5--00-0-3-00-0-3--|
D)--5------------00-0-3-00-0-5--5------------00-0-3-00-0-3--|

E)------------------------------|
B)------------------------------|
G)--------7---------------------|
D)------7---7----00-0-3-00-0-5--|
A)----5-------5--00-0-3-00-0-5--|
D)--5------------00-0-3-00-0-5--|

Pre-chorus: 02:16
E)-------------------|
B)-------------------|
G)-------10------12--|
D)------8------10----|
A)----8------10------|
D)--8------10--------|

Chorus: Guitar 1 plays alone  02:22
E)-----------------------------------------|
B)-----------------------------------------|
G)-----7-7---7-7---7-----------------------|
D)-----7-7---7-7---7-----8-8-----7-7--8-7--|
A)-----5-5---5-5---5-----8-8-----7-7--5-5--|
D)--0-0---0-0----0---8-8-8-8-7-7-7-7--5-5--|x2
    * *   * *    *   * *     * *
Chorus: 02:34
E)-----------------------------------------|
B)-----------------------------------------|
G)-----7-7---7-7---7-----------------------|
D)-----7-7---7-7---7-----8-8-----7-7--8-7--|
A)-----5-5---5-5---5-----8-8-----7-7--5-5--|
D)--0-0---0-0----0---8-8-8-8-7-7-7-7--5-5--|x6
    * *   * *    *   * *     * *
I hope this tab helped-PMT

Comments about this tab

Te eF Kay - 2006-08-04

this looks great!!!Im going to try this out and I am sending my version in soon!Im nearly finished the intro but yours looks best so far!


Te eF Kay - 2006-08-04

I give it a 4. good job!


U B the band - 2006-08-13

okay everyone thanks for looking at the tab, but can you please comment and or rate it i want to know how i did.....i learned this song in about 15-20min. and i want to know if i did a good enough job with it-PMT


guitar_freak_82 - 2006-10-31

hey, its a pretty good tab but I think the intro is wrong, this is what I came up with and plz tell me if you think its awfull


A----5----5-----5----5-----1----1-----0---------{
D-0-0-0--0-0-0-0-0--0-0-0-0-0--0-0-0-0-0-0-2-3--{ then repeat a few times.

tell me if you think it is way off

Guitar_freak_82


Add a comment/correction

Complimentary Christian Ringtones
Dadamobile and CGR have teamed up to bring your favorite Christian artists right to your phone. Sign up today and get 10 complementary ringtones!
Tab Country
Did you know CGR has a sister site w/ country guitar tabs? Well we do! Its called Tab Country. It has a great archive with a lot of country tabs.
Rockin Tabs
Are you looking for a site that has rock guitar tabs? Then Rockintabs.com is the place for you. It is a budding site with many rock guitar tabs. Submit your tab today.
Tab Gallery
Tab Gallery has a compilation of christian, rock, and country tabs all in one place. Come visit us.