Guitar Tabs
song title    band name

Join Us Today!

Don't strum alone...
be a part of the largest online Christian music community. Browse thousands of guitar tabs and chat w/ musicians like yourself.


It's Free!

This tab has not yet been rated for accuracy.Sorry, but you must be logged in to rate this tab.
Click here to log-in, or you can click here to register.
(Registration is free)

All songs owned by corresponding publishing company. If you make copies of any song on this website, be sure to report your usage to CCLI.
Submitted by: Oasis_guy

Hillsong United Live
Song: Tell The World
Album: 

Ok guys, a lot of you are getting bits and pieces of this song right but no ones hitting it dead on so…. I took the liberty of typing up the CORRECT tab.

Intro
e |-----------------------------------------------|
b |----7--7--7--7--7--7--7--7--55555-555--|
g |---b9-b9-b9-b9-b9-b9-b9--77777-666--| X4
d |-----------------------------------------------|
a |-----------------------------------------------|
E |----------------------------------------------|

Verse
g |-----11-11-11-11-11-11-7-7-7-11-11-11-11-16-16-16-14-14-14-13-13-|
d |-------------------------------------------------------------------------------------|
a |-------9--9--9--9--9--9---5-5-5--9--9--9--9---14-14-14-12-12-12-11-11-|     X2
E |------------------------------------------------------------------------------------|

Pre-Chorus
b |-----------10-----------------------------------------------------|
g |---------------11-11-11-11-11-11-11-11-11-11-11-11-11-| X4
d |---11-11---------11-11-11-11-11-11-11-11-11-11-11-11-|

Chorus
g |-----------9-9-9-9-----------7-7-7-7-|
d |-7-7-7-7-9-9-9-9-4-4-4-4-7-7-7-7-| X2
a |-7-7-7-7-7-7-7-7-4-4-4-4-5-5-5-5-|
E |-5-5-5-5----------2-2-2-2------------|

Intro X2
Verse X2
Pre-Chorus X4
Chorus X4

Bridge
(drums)
(drums and bass)
Lead Guitar plays Pre-Chorus X4
Rhythm Guitar plays Chorus   X2

Chorus X4

Outro
Chorus X4
Guitar 2
E |---------------------------------------21-22--|
b |----------22-22-19-19----------22-22-21-------|
g |-18-18-18-------------18-18-18----------------|x4
d |----------------------------------------------|
a |----------------------------------------------|
E |----------------------------------------------|

Comments about this tab

No comments/corrections found. Add your own

Complimentary Christian Ringtones
Dadamobile and CGR have teamed up to bring your favorite Christian artists right to your phone. Sign up today and get 10 complementary ringtones!
Tab Country
Did you know CGR has a sister site w/ country guitar tabs? Well we do! Its called Tab Country. It has a great archive with a lot of country tabs.
Rockin Tabs
Are you looking for a site that has rock guitar tabs? Then Rockintabs.com is the place for you. It is a budding site with many rock guitar tabs. Submit your tab today.
Tab Gallery
Tab Gallery has a compilation of christian, rock, and country tabs all in one place. Come visit us.