Guitar Tabs
song title    band name

Join Us Today!

Don't strum alone...
be a part of the largest online Christian music community. Browse thousands of guitar tabs and chat w/ musicians like yourself.


It's Free!

This tab has been rated a 4.75 out of 5 for accuracy. (8 votes)Sorry, but you must be logged in to rate this tab.
Click here to log-in, or you can click here to register.
(Registration is free)

All songs owned by corresponding publishing company. If you make copies of any song on this website, be sure to report your usage to CCLI.
Submitted by: Adam K

Kutless -Shut Me Out (Acoustic)-
From -Hearts Of The Innocent Special Edition-
Copyright  2006 Tooth & Nail Records
Drop C# Tuning C#-G#-C#-F#-A#-D#

h=hammer on

Intro
Gtr. 2
D#[-------------------------------------------------------]
A#[-------------------------------------------------------]
F#[----7------------7------------7------------------------]
C#[-0--7-x5h7/3--0--7-x5h7/3--0--7-x5h7/3--8/8/8/8xx10----]
G#[-0--5-x5h7/3--0--5-x5h7/3--0--5-x5h7/3--8/8/8/8xx10----]x2
C#[-0----x5h7/3--0----x5h7/3--0----x5h7/3--8/8/8/8xx10----]

Gtr. 1
D#[-------------------------------------------------------------]
A#[----8/8/8--8-8-----8/8/8--8-8-----8/8/8--8-----8-8--8/8/8----]
F#[----7/7/7--7-7-----7/7/7--7-7-----7/7/7--7-----7-7--7/7/7----]
C#[-------------------------------------------------------------]
G#[-------------------------------------------------------------]x2
C#[-0--------------0--------------0-----------------------------]

Verse 1
Gtr. 2
D#[---------------------]
A#[---------------------]
F#[-7----5---------7----]
C#[-7----5----7----7----]
G#[-5----3----5----5----]x2
C#[-----------5----0----]

Pre-Chorus
Gtr. 1
D#[------------------------------]
A#[------------------------------]
F#[-7--9--10--12(   )--7(   )----]
C#[-x--x---x---x(x16)--x(x10)----]
G#[-5--7---8--10(   )--5(   )----]
C#[------------------------------]

D#[-------------------------]
A#[-------------------------]
F#[-7--9--10--12(   )--5----]
C#[-x--x---x---x(x16)--5----]
G#[-5--7---8--10(   )--3----]
C#[-------------------------]

Gtr. 2
D#[------------------------------------]
A#[------------------------------------]
F#[-------------------------------5----]
C#[----5/5/5----0/0/0----5/5/5----5----]
G#[----5/5/5----0/0/0----5/5/5----3----]
C#[----5/5/5----0/0/0----5/5/5---------]

Chorus
Gtr. 2
D#[-------------------------------------------------------]
A#[-------------------------------------------------------]
F#[----7------------7------------7------------------------]
C#[-0--7-x5h7/3--0--7-x5h7/3--0--7-x5h7/3--8/8/8/8xx10----]
G#[-0--5-x5h7/3--0--5-x5h7/3--0--5-x5h7/3--8/8/8/8xx10----]x2
C#[-0----x5h7/3--0----x5h7/3--0----x5h7/3--8/8/8/8xx10----]

Gtr. 1
D#[----------------------------------------------------]
A#[----8/8/8--8-8-----8/8/8--8-8-----8/8/8--8-----8----]
F#[----7/7/7--7-7-----7/7/7--7-7-----7/7/7--7-----7----]
C#[----------------------------------------------------]
G#[----------------------------------------------------]x2
C#[-0--------------0--------------0--------------------]

Verse 2
Same as Verse 1

Pre-Chorus

Chorus 2
Gtr. 2
D#[-------------------------------------------------------]
A#[-------------------------------------------------------]
F#[----7------------7------------7------------------------]
C#[-0--7-x5h7/3--0--7-x5h7/3--0--7-x5h7/3--8/8/8/8xx10----]
G#[-0--5-x5h7/3--0--5-x5h7/3--0--5-x5h7/3--8/8/8/8xx10----]
C#[-0----x5h7/3--0----x5h7/3--0----x5h7/3--8/8/8/8xx10----]

D#[-----------------------------------------------------------------]
A#[-----------------------------------------------------------------]
F#[----7------------7------------7----------------------------------]
C#[-0--7-x5h7/3--0--7-x5h7/3--0--7-x5h7/3--8/8/8/8xx10-xx10-xx10----]
G#[-0--5-x5h7/3--0--5-x5h7/3--0--5-x5h7/3--8/8/8/8xx10-xx10-xx10----]
C#[-0----x5h7/3--0----x5h7/3--0----x5h7/3--8/8/8/8xx10-xx10-xx10----]

Gtr. 1
D#[----------------------------------------------------]
A#[----8/8/8--8-8-----8/8/8--8-8-----8/8/8--8-----8----]
F#[----7/7/7--7-7-----7/7/7--7-7-----7/7/7--7-----7----]
C#[----------------------------------------------------]
G#[----------------------------------------------------]x2
C#[-0--------------0--------------0--------------------]

Bridge
Gtr. 2
D#[---------------------------------------------------]
A#[---------------------------------------------------]
F#[-3----7------------3----7--------------------------]
C#[-3----7--5--7--10--3----7--5--7--10--8--7--3--0----]
G#[-1----5--5--7--10--1----5--5--7--10--8--7--3--0----]
C#[---------5--7--10----------5--7--10--8--7--3--0----]

Gtr. 1
D#[-----10----10-------]
A#[---6-----6-----6----]
F#[-7-----7-----7------]
C#[--------------------]
G#[--------------------]x9
C#[--------------------]

Chorus 

Chorus 2

End on
D#[------]
A#[------]
F#[------]
C#[-0----]
G#[-0----]
C#[-0----]


Tabbed by Adam K

Comments about this tab

E-rock - 2006-08-06

YEEEEEESSSSSSS! this is awesome. thank you so much.


the strat guy - 2006-12-07

on verse 1 couldnt you just randome pick the top three strings
whith a slight palm mute..... try it out

C#0-0-0-10-10-10-5-5-5-0-0----
G#0-0-0-10-10-10-5-5-5-0-0----
C#0-0-0-10-10-10-5-5-5-0-0----


Adam K - 2006-12-22

You could, but thats not the way they play it.


WashburnGuitar9 - 2007-05-24

how do i go into Drop C?


Add a comment/correction

Complimentary Christian Ringtones
Dadamobile and CGR have teamed up to bring your favorite Christian artists right to your phone. Sign up today and get 10 complementary ringtones!
Tab Country
Did you know CGR has a sister site w/ country guitar tabs? Well we do! Its called Tab Country. It has a great archive with a lot of country tabs.
Rockin Tabs
Are you looking for a site that has rock guitar tabs? Then Rockintabs.com is the place for you. It is a budding site with many rock guitar tabs. Submit your tab today.
Tab Gallery
Tab Gallery has a compilation of christian, rock, and country tabs all in one place. Come visit us.