Guitar Tabs
song title    band name

Join Us Today!

Don't strum alone...
be a part of the largest online Christian music community. Browse thousands of guitar tabs and chat w/ musicians like yourself.


It's Free!

This tab has been rated a 4.00 out of 5 for accuracy. (2 votes)Sorry, but you must be logged in to rate this tab.
Click here to log-in, or you can click here to register.
(Registration is free)

All songs owned by corresponding publishing company. If you make copies of any song on this website, be sure to report your usage to CCLI.
Submitted by: 1000 Falling

UnderOATH
A Boy Brushed Red…. Living In Black and White
Drop D Tuning

Verse 1
E||--------------------------------------------------------------------
B||--------------------------------------------------------------------
G||--------------------------------------------------------------------
D||--------------------------------------------------------------------
A||-4444444444444444—0000000000000000-2222222222222222-----------------
D||----------------------------------------------------4444444444444444
    ................ ................ ................ ................
E||--------------------------------------------------------------------
B||--------------------------------------------------------------------
G||--------------------------------------------------------------------
D||-6666666666666666-2222222222222222-4444444444444444------------4----
A||-4444444444444444—0000000000000000-2222222222222222-44444444---4----
D||----------------------------------------------------44444444---4----
    ................ ................ ................ .....

Chorus: “Here is where...” (You figure out the strumming)
E||--------------------------------------------------------------------
B||--------------------------------------------------------------------
G||-6>----7>----4>-----------------------------------------------------
D||-6>----7>----4>----4>-----------------------------------------------
A||-4>----7>----2>----4>-----------------------------------------------
D||-------------------4>-----------------------------------------------

Verse 2(Tonights my last chance to..)
E||-------------------------------------------------------------------
B||-------------------------------------------------------------------
G||----------6--6--6-------------6--6--6------------------------------
D||---------------------------------------6--6--6--6------------------
A||-4--4--4-----------4--4--4-----------------------------------------
D||-------------------------------------------------------------------
                                                      
E||-------------------------------------------------------------------
B||-------------------------------------------------------------------
G||----------6--6--6-------------6--6--6------------------------------
D||---------------------------------------6--6--6--6------------------
A||-0--0--0-----------0--0--0-----------------------------------------
D||-------------------------------------------------------------------
                                                      
E||-------------------------------------------------------------------
B||-------------------------------------------------------------------
G||----------6--6--6-----------6--6--6--------------------------------
D||-------------------------------------6--6--6—6---------------------
A||-2--2--2-----------2--2--2-----------------------------------------
D||-------------------------------------------------------------------
                                                      
E||--------------------------------------------------------------------
B||--------------------------------------------------------------------
G||-----------6--6--6-----------6--6--6--------------------------------
D||--------------------------------------6--6--6--6--------------------
A||--------------------------------------------------------------------
D||--4--4--4-----------4--4--4-----------------------------------------

This is the part where he says “And This Could Be My Night”...Im working on the actual part but this is what the bass and guitar 2 play
                                                      
E||--------------------------------------------------------------------
B||--------------------------------------------------------------------
G||--------------------------------------------------------------------
D||---------------------------------------------------------------4----
A||-4444444444444444—0000000000000000-2222222222222222------------4----
D||----------------------------------------------------44444444---4----

Chorus: “Here is where...” (You figure out the strumming) (2x)
E||--------------------------------------------------------------------
B||--------------------------------------------------------------------
G||-6>----7>----4>-----------------------------------------------------
D||-6>----7>----4>----4>-----------------------------------------------
A||-4>----7>----2>----4>-----------------------------------------------
D||-------------------4>-----------------------------------------------


Bridge: “In this moment...” (You Figure out the strumming) 
E||--------------------------------------------------------------------
B||--------------------------------------------------------------------
G||--------------------------------------------------------------------
D||-7>----4>----7>----4>-----9>----------------------------------------
A||-7>----4>----7>----4>-----9>----------------------------------------
D||-7>----4>----7>----4>-----9>----------------------------------------

                                                                                
Chorus: “Your Lungs Have Failed...” (You figure out the strumming)(4x)
E||--------------------------------------------------------------------
B||--------------------------------------------------------------------
G||-6>-----------------------------------------------------------------
D||-6>----7>----4>----7>-----------------------------------------------
A||-4>----7>----4>----7>-----------------------------------------------
D||-------7>----4>----7>-----------------------------------------------

Verse 3: “Well, look whos dying now”                                                                              
E||--------------------------------------------------------------------
B||--------------------------------------------------------------------
G||--------------------------------------------------------------------
D||-6666666666666666-2222222222222222-4444444444444444-----------------
A||-4444444444444444-0000000000000000-2222222222222222-4444444444444444
D||----------------------------------------------------4444444444444444

This is the part where he says “It Doesnt matter what you say”...Im working on the actual part but this is what the bass and guitar 2 play
                                                      
E||--------------------------------------------------------------------
B||--------------------------------------------------------------------
G||--------------------------------------------------------------------
D||---------------------------------------------------------------4----
A||-4444444444444444—0000000000000000-2222222222222222------------4----
D||----------------------------------------------------44444444---4----

Bridge: “In this moment...” (You Figure out the strumming) 
E||--------------------------------------------------------------------
B||--------------------------------------------------------------------
G||--------------------------------------------------------------------
D||-7>----4>----7>----4>-----9>----------------------------------------
A||-7>----4>----7>----4>-----9>----------------------------------------
D||-7>----4>----7>----4>-----9>----------------------------------------

Chorus: “Your Lungs Have Failed...” (You figure out the strumming)(4x)
E||--------------------------------------------------------------------
B||--------------------------------------------------------------------
G||-6>-----------------------------------------------------------------
D||-6>----7>----4>----7>-----------------------------------------------
A||-4>----7>----4>----7>-----------------------------------------------
D||-------7>----4>----7>-----------------------------------------------

I haven’t gotten the weird part in the background, but what I do have is this

Break: “don’t Shake...” (You figure out the strumming)(5x)
E||--------------------------------------------------------------------
B||--------------------------------------------------------------------
G||--------------------------------------------------------------------
D||-7>----4>-----------------------------------------------------------
A||-7>----4>-----------------------------------------------------------
D||-7>----4>-----------------------------------------------------------

There’s a picking part here that I haven’t gotten either 

Chorus: “Your Lungs Have Failed...” (You figure out the strumming)(
E||--------------------------------------------------------------------
B||--------------------------------------------------------------------
G||-6>----------------------6>-----------------------------------------
D||-6>----7>----4>----7>----6>----7>----4>-----------------------------
A||-4>----7>----4>----7>----4>----7>----4>-----------------------------
D||-------7>----4>----7>----------7>----4>-----------------------------

Chorus: “Your Lungs Have Failed...” (You figure out the strumming)(5x)
E||--------------------------------------------------------------------
B||--------------------------------------------------------------------
G||-6>-----------------------------------------------------------------
D||-6>----7>----4>----7>-----------------------------------------------
A||-4>----7>----4>----7>-----------------------------------------------
D||-------7>----4>----7>-----------------------------------------------

Outro
E||--------------------------------------------------------------------
B||--------------------------------------------------------------------
G||-6>----------------------6-6----6-6---------------------------------
D||-6>----7>----4>----7>----6-6----6-6---------------------------------
A||-4>----7>----4>----7>----4-4----4-4---------------------------------
D||-------7>----4>----7>-----------------------------------------------

  

Comments about this tab

massi107 - 2006-12-06

Very Nicely Done. The only correction I have to make though is
When he sings "In This Moment..." It should be

E||-----------------------------
B||-----------------------------
G||-2---------------------------
D||-2--7--9--4------------------
A||-4--7--9--4------------------
E||----7--9--4------------------


Add a comment/correction

Complimentary Christian Ringtones
Dadamobile and CGR have teamed up to bring your favorite Christian artists right to your phone. Sign up today and get 10 complementary ringtones!
Tab Country
Did you know CGR has a sister site w/ country guitar tabs? Well we do! Its called Tab Country. It has a great archive with a lot of country tabs.
Rockin Tabs
Are you looking for a site that has rock guitar tabs? Then Rockintabs.com is the place for you. It is a budding site with many rock guitar tabs. Submit your tab today.
Tab Gallery
Tab Gallery has a compilation of christian, rock, and country tabs all in one place. Come visit us.