Guitar Tabs
song title    band name

Join Us Today!

Don't strum alone...
be a part of the largest online Christian music community. Browse thousands of guitar tabs and chat w/ musicians like yourself.


It's Free!

This tab has not yet been rated for accuracy.Sorry, but you must be logged in to rate this tab.
Click here to log-in, or you can click here to register.
(Registration is free)

All songs owned by corresponding publishing company. If you make copies of any song on this website, be sure to report your usage to CCLI.
Submitted by: givinit2God

Standard tuning

the verses are mostly palm muting C# and bass lines.

Pre-Chorus
e----------------
B----------------
G----------------    x4
D--4----6----8---
A--4----6----8---
E--2----4----6---

Chorus
e--------------------------------
B--------------------------------
G---------------6----------------
D--8--4---6-----6--4----6-------- (always end on C#)
A--8--4---6-----4--4----6--------
E--6--2---4--------2----4--------

Verse

Pre-Chorus

Chorus

Bridge (picking)

e----------------------------------
B----------------------------------
G----------------------------------
D------3---------3-----4-3---------   repeat x 3
A--4-4---4-4-3-4---4-4-------------
E----------------------------------

Pre-Chorus

Key change/ Chorus (with the key change) 

e-------------------------
B-------------------------
G-------------8-----------   reapeat x 3
D--10--6--8---8--6---8----
A--10--6--8---6--6---8----
E--8---4--6------4---6----

Solo

still trying to figure out what the distorted part that comes before this is.

e--------------------------------------11-11-8-8-11-11-8-8-11-11-8-8-11-11-8-8
B-13-11-------------11-----------------------------------
G-------13-12-13-12----13-12-13-12-12-------


e-16-16-15-15-16-16-15-15-16-16-15-15-18-20-16-15-16/18----

Comments about this tab

relientrocker - 2006-07-28

i dont understand the solo


Falcon-fever777 - 2006-07-31

the solo didn't sound entirely right, but it was close. it just soumded like you missed a couple notes. si if people just listen closely with thier ear they could probably get the point and follow along. it sounded great


negativezero - 2008-01-06

first off, the song is tuned down half a step, so all that you've tabbed, just move up one fret (5th fret would go to 6th fret)

and this is the verses
*all palm muted
e|-------------------------------------------------------------------------
B|-------------------------------------------------------------------------
G|--7---7---6---6---7---7--6---7--9---7---7---6---6---7---7---6----11--9---
D|----7---7---7---7---7---7--7----------7---7---7---7---7---7---7----------
A|-------------------------------------------------------------------------
E|-------------------------------------------------------------------------

and the little distortioned part you couldnt figure out is:

e|-------------------------------------------------------------------------
B|-------------------------------------------------------------------------
G|-------------------------------------------------------------------------
D|-------------------------0--2--4--2/14-13-11/16--------------------------
A|----------0--2--4--2--4--------------------------------------------------
E|-0--2--4-----------------------------------------------------------------

im still working out the actual solo itself


Add a comment/correction

Complimentary Christian Ringtones
Dadamobile and CGR have teamed up to bring your favorite Christian artists right to your phone. Sign up today and get 10 complementary ringtones!
Tab Country
Did you know CGR has a sister site w/ country guitar tabs? Well we do! Its called Tab Country. It has a great archive with a lot of country tabs.
Rockin Tabs
Are you looking for a site that has rock guitar tabs? Then Rockintabs.com is the place for you. It is a budding site with many rock guitar tabs. Submit your tab today.
Tab Gallery
Tab Gallery has a compilation of christian, rock, and country tabs all in one place. Come visit us.