Guitar Tabs
song title    band name

Join Us Today!

Don't strum alone...
be a part of the largest online Christian music community. Browse thousands of guitar tabs and chat w/ musicians like yourself.


It's Free!

This tab has been rated a 5.00 out of 5 for accuracy. (4 votes)Sorry, but you must be logged in to rate this tab.
Click here to log-in, or you can click here to register.
(Registration is free)

All songs owned by corresponding publishing company. If you make copies of any song on this website, be sure to report your usage to CCLI.
Submitted by: U B the band

Stranger by TFK
tuning D A D G B E

key:
b-bend
/-slide up
h-hammer

listen to the cd to hear when NOT to play the little notes-PMT

intro/verse: Guitar 1
E)----------------------------0-----------------|
B)------------------3----------1----------------|
G)--------2-------2---------2-------------------|
D)-------------------------------------xxxxx00--|
A)--------------------1-3--------1-3---xxxxx00--|
D)--3-5-0---3-5-0---------0----------0-xxxxx00--|x4

guitar 2(fill in):i am not 100% sure on this
E)------------------------------0----------0--|
B)--------3b--------3b---------3----------3---|
G)---------------------------33---------33----|
D)--xxxx00----xxxx00----xxx0-33----xxx0-33----|
A)--xxxx00----xxxx00----xxx0-11----xxx0-11----|
D)--xxxx00----xxxx00----xxx0-------xxx0-------|

pre-chorus:
E)------------------------------------------|
B)------------------------------------------|
G)------------------------------------------|
D)--7-7-3-3-5-5-00xx00--7-7-3-3-5-5-00xx00--|
A)--7-7-3-3-5-5-00xx00--7-7-3-3-5-5-00xx00--|
D)--7-7-3-3-5-5-00xx00--7-7-3-3-5-5-00xx00--|

chorus:
E)------------------------------------------------------------|
B)------------------------------------------------------------|
G)-------33333-------55---------33333-------------------------|
D)--0-xx-33333-3-3-3-55-0-3-000-33333-3-3-3-5-----------------|
A)--0-xx-11111-3-3-3-33-0-3-000-11111-3-3-3-5-----------------|
D)--0-xx-------3-3-3----0-3-000-------3-3-3-5-10-8-0-7-8-5/7--|x2

verse 2: Guitar 1
E)----------------------------0---------|
B)-----------------------------1--------|
G)--------2-----------------2-----------|
D)--------------------------------------|
A)--------------------1-3--------1-3----|
D)--3-5-0---3-5-0---------0----------0--|x2

guitar 2(fill in):
E)---------------------------------------------|
B)--------3b--------3b---------3-5--------3-5--|
G)---------------------------33---------33-----|
D)--xxxx00----xxxx00----xxx0-33----xxx0-33-----|
A)--xxxx00----xxxx00----xxx0-11----xxx0-11-----|
D)--xxxx00----xxxx00----xxx0-------xxx0--------|

pre-chorus:
E)------------------------------------------|
B)------------------------------------------|
G)------------------------------------------|
D)--7-7-3-3-5-5-00xx00--7-7-3-3-5-5-00xx00--|
A)--7-7-3-3-5-5-00xx00--7-7-3-3-5-5-00xx00--|
D)--7-7-3-3-5-5-00xx00--7-7-3-3-5-5-00xx00--|

chorus:
E)------------------------------------------------------------|
B)------------------------------------------------------------|
G)-------33333-------55---------33333-------------------------|
D)--0-xx-33333-3-3-3-55-0-3-000-33333-3-3-3-5-----------------|
A)--0-xx-11111-3-3-3-33-0-3-000-11111-3-3-3-5-----------------|
D)--0-xx-------3-3-3----0-3-000-------3-3-3-5-10-8-0-7-8-5/7--|x2

bridge:
E)------------------------------------------|
B)------------------------------------------|
G)------------------------------------------|
D)--0-8-0-8-0-10-0-10-0-10-0-13h12----------|
A)--0-8-0-8-0-10-0-10-0-10-0-13h12----------|
D)--0-8-0-8-0-10-0-10-0-10-0-13h12----------|x6

bridge fill-in during solo:
E)---------------------------------------------|
B)---------------------------------------------|
G)-------33333-------55---------33333----------|
D)--0-xx-33333-3-3-3-55-0-3-000-33333-3-3-3-5--|
A)--0-xx-11111-3-3-3-33-0-3-000-11111-3-3-3-5--|
D)--0-xx-------3-3-3----0-3-000-------3-3-3-5--|

chorus during solo:
E)-----------------------------------------------------------|
B)-----------------------------------------------------------|
G)------33333-------55---------33333-------------------------|
D)-0-xx-33333-3-3-3-55-0-3-000-33333-3-3-3-5-----------------|
A)-0-xx-11111-3-3-3-33-0-3-000-11111-3-3-3-5-----------------|
D)-0-xx-------3-3-3----0-3-000-------3-3-3-5-10-8-0-7-8-5/7--|x3

E)-------------------------------------------------------------|
B)-------------------------------------------------------------|
G)------33333-------55---------33333---------------------------|
D)-0-xx-33333-3-3-3-55-0-3-000-33333-3-3-3-5-------------------|
A)-0-xx-11111-3-3-3-33-0-3-000-11111-3-3-3-5----------------00-|
D)-0-xx-------3-3-3----0-3-000-------3-3-3-5-10-8-0-7-8-5/7-00-|

Comments about this tab

ice_wiz - 2006-07-18

Awesome job, keep it up! One thing, those extra notes in the verse is the lead guitar, so you wouldn't play it on the same guitar.


U B the band - 2006-07-18

I put those little notes in there as one guitar because Jamie played them in concert that way so....yeah it sounds cool-PMT


U B the band - 2006-07-18

I'm working on the solo cause the other is not complete and I think mine is a little beter but you guys can rate it-PMT


ice_wiz - 2006-07-19

Yeah, he would play them because they only use one guitar in concert. It's fine with them, that way you can play lead and rhythm at the same time.


U B the band - 2006-07-26

oops! i found a mistake in the bridge...i put: 13h12.....it's suppost to be: 13p12 but if you guys even payed any attention....yeah thats all-PMT


akaukal - 2006-07-28

This is a great tab!


Te eF Kay - 2006-08-04

your awesome at tabbing!!!keep this up!!!


ice_wiz - 2006-08-14

The scratching for guitar one is not scratchings, it's a palm muted D5 chord. It sounds way too flat when you scratch.


U B the band - 2006-08-14

yeah about that umm......i forgot to say that i scratch the chord at the first fret....so it sounds like a palm mute-PMT


Add a comment/correction

Complimentary Christian Ringtones
Dadamobile and CGR have teamed up to bring your favorite Christian artists right to your phone. Sign up today and get 10 complementary ringtones!
Tab Country
Did you know CGR has a sister site w/ country guitar tabs? Well we do! Its called Tab Country. It has a great archive with a lot of country tabs.
Rockin Tabs
Are you looking for a site that has rock guitar tabs? Then Rockintabs.com is the place for you. It is a budding site with many rock guitar tabs. Submit your tab today.
Tab Gallery
Tab Gallery has a compilation of christian, rock, and country tabs all in one place. Come visit us.