Guitar Tabs
song title    band name

Join Us Today!

Don't strum alone...
be a part of the largest online Christian music community. Browse thousands of guitar tabs and chat w/ musicians like yourself.


It's Free!

This tab has been rated a 4.17 out of 5 for accuracy. (6 votes)Sorry, but you must be logged in to rate this tab.
Click here to log-in, or you can click here to register.
(Registration is free)

All songs owned by corresponding publishing company. If you make copies of any song on this website, be sure to report your usage to CCLI.
Submitted by: tl_guitarnut

Title: New Hope Generation
Artist: Falling Up
Album: Crashings
Copyright Bec Records
Tuning: Drop D (DADGBe)


x=deaden or mute strings 


Intro:
e | -----------------------------------------------|
B | -----------------------------------------------|
G | ---------------9-9-9-9---------------5-5-5-5---|
D | -0-0--0-0--0-0-x-x-x-x-0-0--0-0--0-0-x-x-x-x---| 2x
A | -0-0--0-0--0-0-7-7-7-7-0-0--0-0--0-0-3-3-3-3---|
D | -0-0--0-0--0-0---------0-0--0-0--0-0-----------|


Verse:
D | -7-----3-----5-----|
A | -7-----3-----5-----| Stop 
D | -7-----3-----5-----|

Wait for drums then do verse again


Pre-Chorus:
e | ------------------------------------------------------|
B | ------------------------------------------------------|
G | ------------------------------------------------------|
D | -x-x---x-x---x-x---x-x---x-x-10-x-x-10-x-x-10-x-x-10--| 2x
A | -x-x-8-x-x-8-x-x-8-x-x-8-x-x----x-x----x-x----x-x-----|
D | -x-x---x-x---x-x---x-x---x-x----x-x----x-x----x-x-----|


After second time do this
e | -14--|
B| ------|


Chorus Guitar 1:
G | -9-9-9-9-10-10-10-10-5-5-5-5-7-7-7-7---|
D | -x-x-x-x--x--x--x--x-x-x-x-x-x-x-x-x---| 2x
A | -7-7-7-7--8--8--8--8-3-3-3-3-5-5-5-5---|
D | ---------------------------------------|


Chorus Guitar 2:
e | ---------------------------------------|
B | ---------------------------------------|
G | ---------------------------------------|
D | -7-7-7-7-15-15-15-15-3-3-3-3-5-5-5-5---| 2x
A | -7-7-7-7-15-15-15-15-3-3-3-3-5-5-5-5---|
D | -7-7-7-7-15-15-15-15-3-3-3-3-5-5-5-5---|


Post-Chorus:
G | ---------------9-9-9-9---------------5-5-5-5----|
D | -0-0--0-0--0-0-x-x-x-x-0-0--0-0--0-0-x-x-x-x----|
A | -0-0--0-0--0-0-7-7-7-7-0-0--0-0--0-0-3-3-3-3----|
D | -0-0--0-0--0-0---------0-0--0-0--0-0------------|


 Verse 2: Same as Verse 1


Pre-Chorus



Chorus 2x


Bridge 1:
D | -7-7---| 
A | -7-7---| 4x
D | -7-7---| 


Then Guitar 2:
e | ----------------------------------------------|
B | ----------------------------------------------|
G | ----------------------------------------------|
D | -7-7-7-7-12-12-12-12-15-15-15-15-14-14-14-14--| 2x
A | -7-7-7-7-12-12-12-12-15-15-15-15-14-14-14-14--|
D | -7-7-7-7-12-12-12-12-15-15-15-15-14-14-14-14--|


Guitar 1:
G | -9-9-9-9-12-12-12-12-17-17-17-17-9-9-9-9--|
D | -x-x-x-x--x--x--x--x--x--x--x--x-x-x-x-x--|
A | -7-7-7-7-10-10-10-10-15-15-15-15-7-7-7-7--| 2x
D | ------------------------------------------|



Bridge 2:
e | -------------------------|
B | -------------------------|
G | -7-11-9xxxx7-11-17---12--|
D | -7-11-9xxxx7-11-17-------|
A | -5--9-7xxxx5-9--15-------|
D | -5--9-7xxxx5-9--15-------|


Then:
e | ---------------------------|
B | ---------------------13----|
G | -7-11-9xxxx7-11-17---------|
D | -7-11-9xxxx7-11-17---------|
A | -5--9-7xxxx5-9--15---------|
D | -5--9-7xxxx5-9--15---------|

Repeat Bridge 2


Chorus 1x


Then Guitar 1:
D | -7-7----7-7----15-15----15-15----3-3-3-3-5-5-5-5--|
A | -7-7----7-7----15-15----15-15----3-3-3-3-5-5-5-5--|
D | -7-7----7-7----15-15----15-15----3-3-3-3-5-5-5-5--|


Guitar 2:
G | ----9-9----9-9----10-10----10-10---5-5-5-5-7-7-7-7-----|
D | ----x-x----x-x----x---x----x---x---x-x-x-x-x-x-x-x-----|
A | ----7-7----7-7----8---8----8---8---3-3-3-3-5-5-5-5-----|
D | -------------------------------------------------------|


Ending:
G | ---------------9-9-9-9---------------5-5-5-5----|
D | -0-0--0-0--0-0-x-x-x-x-0-0--0-0--0-0-x-x-x-x----| 
A | -0-0--0-0--0-0-7-7-7-7-0-0--0-0--0-0-3-3-3-3----| 2x
D | -0-0--0-0--0-0---------0-0--0-0--0-0------------|


Please comment and rate.


God Bless, 
tl_guitarnut

Comments about this tab

E-rock - 2006-07-11

looks like you nailed this one. maybe not perfect, but who is? nice job bud. i needed this song haha.....no really


tl_guitarnut - 2006-07-11

Thanks for the comment man


sac346 - 2007-02-12

Chorus is WAY off man, but it's a VERY hard song. you did VERY good.


sac346 - 2007-02-12

Sorry i ment pre chorus is WAY off. not the chorus.


Add a comment/correction

Complimentary Christian Ringtones
Dadamobile and CGR have teamed up to bring your favorite Christian artists right to your phone. Sign up today and get 10 complementary ringtones!
Tab Country
Did you know CGR has a sister site w/ country guitar tabs? Well we do! Its called Tab Country. It has a great archive with a lot of country tabs.
Rockin Tabs
Are you looking for a site that has rock guitar tabs? Then Rockintabs.com is the place for you. It is a budding site with many rock guitar tabs. Submit your tab today.
Tab Gallery
Tab Gallery has a compilation of christian, rock, and country tabs all in one place. Come visit us.