Guitar Tabs
song title    band name

Join Us Today!

Don't strum alone...
be a part of the largest online Christian music community. Browse thousands of guitar tabs and chat w/ musicians like yourself.


It's Free!

This tab has not yet been rated for accuracy.Sorry, but you must be logged in to rate this tab.
Click here to log-in, or you can click here to register.
(Registration is free)

All songs owned by corresponding publishing company. If you make copies of any song on this website, be sure to report your usage to CCLI.
Submitted by: playing41god

Walk By Faith         by Jeremy Camp   I have some things to add as well as a 
                                       different approach to the voicings.

Key of Eb

Intro: Guitar 1

E-------13---------------13-----------------13-----------------13---------------
B---11-----11------11--------11--------10------10--------10-------10------------
G-12--12---------12---12-------------12---12----------12----12------------------
D-------------------------------------------------------------------------------
A-------------------------------------------------------------------------------
E-------------------------------------------------------------------------------

Guitar 2, played over the above, timing is critical

E-------------------------------------------------------------------------------
B-------3---------------3------------------3-----------------3------------------
G-----0---0-----------0----0-------------0---0------------0----0----------------
D-------------------------------------------------------------------------------
A--3---------------3-----------------3----------------3-------------------------
E-------------------------------------------------------------------------------


Then comes the fill

E-----------------------------------------1------------------1------------------
B----------------------6---------------------4------------------1---------------
G-s/10--8-7----------------3-----------3---------------------------3------------
D-------------------5---------------1---------------------3---------------------
A----------------3-------------------------------------1------------------------
E-------------------------------------------------------------------------------

Another fill

E------------------------------------1------------------------------------------
B--10-s/11-s/10-s/8--6-s/8-s/6-------1-------------------8----------------------
G------------------------------------2------3------------7----------------------
D------------------------------------3------1------------8----------------------
A------------------------------------3-------------------6----------------------
E------------------------------------1------------------------------------------


Chorus 6/8 feel  rythm played on counts 1,4,and 5

count           1-2-3-4-5-6
play each chord ^     ^ ^     apply a slight amount of palm muting 

E-------------------------------------------------------------------------------
B-------------------------------------------------------------------------------
G------------8--------------------3---------------------------------------------
D--8---8-----8--------5----3------1---------------------------------------------
A--8---8-----6--------5----3----------------------------------------------------
E--6---5--------------3----1----------------------------------------------------

Explanation of chords 

Verse: Gm7/C   Ebadd9    Bbadd9

Chorus:Bb    Bb/A  Eb    Gm   F   Eb

To see an explanation of the chord shapes and their fingering see below.

Gm7/C

starting at the 3rd fret, remember this is fingering not tab, barre with the 
first finger across the 3rd fret.

[----!----!----!---------   next  Ebadd9 starting on the 1st fret
[--1-!----!----!---4-----
[--1-!----!----!---------    
[--1-!----!--3-!---------
[--1-!----!----!--------- 
[----!----!----!---------


[-1-!-----!----!-------- barre the 1st fret
[---!-----!----!--4-----
[---!-----!-3--!--------
[-1-!-----!----!--------
[---!-----!----!--------
[---!-----!----!--------


Lastly the Bbadd9

[-1-!----!--------- again barre the first fret
[-1-!----!---------
[---!----!---4-----
[---!----!---4-----
[-1-!----!---------
[---!----!---------

Hope this can offer some help or a different view. I did this after listening 
to the recording many times and chose this way because the chords seem to have 
a voicing that suits the song as well as the recording. God Bless!



Comments about this tab

No comments/corrections found. Add your own

Complimentary Christian Ringtones
Dadamobile and CGR have teamed up to bring your favorite Christian artists right to your phone. Sign up today and get 10 complementary ringtones!
Tab Country
Did you know CGR has a sister site w/ country guitar tabs? Well we do! Its called Tab Country. It has a great archive with a lot of country tabs.
Rockin Tabs
Are you looking for a site that has rock guitar tabs? Then Rockintabs.com is the place for you. It is a budding site with many rock guitar tabs. Submit your tab today.
Tab Gallery
Tab Gallery has a compilation of christian, rock, and country tabs all in one place. Come visit us.