Guitar Tabs
song title    band name

Join Us Today!

Don't strum alone...
be a part of the largest online Christian music community. Browse thousands of guitar tabs and chat w/ musicians like yourself.


It's Free!

This tab has been rated a 1.00 out of 5 for accuracy. (1 vote)Sorry, but you must be logged in to rate this tab.
Click here to log-in, or you can click here to register.
(Registration is free)

All songs owned by corresponding publishing company. If you make copies of any song on this website, be sure to report your usage to CCLI.
Submitted by: roathparkmonste

Hi, hope you enjoy this song, its very simple, just a few riffs.

Tuning E A D G B e (standard)

Intro:

e----------------------------------------
B-15-15-15-15-15-15-15-15-13-12-13-12-13-
G-------------------------12-12-12-12-13-
D----------------------------------------
A----------------------------------------
E----------------------------------------

In some live versions he bends the 15th fret instead
of playing the riff the last time.

1st line: note stop after each chord.

  G  G    Em Em  D  D   C  C
e-10-10---7--7---5--5---3--3
B-12-12---8--8---7--7---5--5
G-12-12---9--9---7--7---5--5
D-12-12---9--9---7--7---5--5
A-10-10---7--7---5--5---3--3
E---------------------------

Understandably, these chords can be annoyingly hard to do,
So only play the A, D and G strings. It sounds practically the same.

Intro:

Verse (palm Muted):

  G  G  Em  Em  D  D  C  C
e-------------------------
B-------------------------
G-12-12--9--9---7--7--5--5
D-12-12--9--9---7--7--5--5
A-10-10--7--7---5--5--3--3
E-------------------------

Chorus (riff underneath):

  G   G   D   D  Em  Em  C  C
e------------------------------
B------------------------------
G-12-12------------------------
D-12-12--12-12--14-14---10--10-
A-10-10--12-12--14-14---10--10-
E--------10-10--12-12---8---8--

Outro (the last line):

C G Am C G Am C G

Ive done two C & G chords, but I find the one in third position is best
for this line.

  Am
e---
B---
G---
D-7-
A-7-
E-5-

Any comments/corrections? stick em below.

Comments about this tab

No comments/corrections found. Add your own

Complimentary Christian Ringtones
Dadamobile and CGR have teamed up to bring your favorite Christian artists right to your phone. Sign up today and get 10 complementary ringtones!
Tab Country
Did you know CGR has a sister site w/ country guitar tabs? Well we do! Its called Tab Country. It has a great archive with a lot of country tabs.
Rockin Tabs
Are you looking for a site that has rock guitar tabs? Then Rockintabs.com is the place for you. It is a budding site with many rock guitar tabs. Submit your tab today.
Tab Gallery
Tab Gallery has a compilation of christian, rock, and country tabs all in one place. Come visit us.