Guitar Tabs
song title    band name

Join Us Today!

Don't strum alone...
be a part of the largest online Christian music community. Browse thousands of guitar tabs and chat w/ musicians like yourself.


It's Free!

This tab has not yet been rated for accuracy.Sorry, but you must be logged in to rate this tab.
Click here to log-in, or you can click here to register.
(Registration is free)

All songs owned by corresponding publishing company. If you make copies of any song on this website, be sure to report your usage to CCLI.
Submitted by: tinman_2007

Day of Fire
Cut and Move

Hey! This is my first tab, so please be gentle!
Play along with the cd to get the timing.

Drop D tuning

Intro:
E--------------------------------------------------------
B--------------------------------------------------------
G--------------------------------------------------------
D—8--8--6--8--8--6--8--8--8--8--8--4--4--4--4--1--1--1--1
A-8--8--6--8--8--6--8--8--8--8--8--4--4--4--4--1--1--1--1
D-8--8--6--8--8--6--8--8--8--8--8--4--4--4--4--1--1--1--1 x4

Verse 1:
 Let the last chord ring out from the intro, then…

(Palm mute)
E-----------
B-----------
G-----------
D—8--4--1---
A—8--4--1---
D—8--4--1---x2

Chorus:
E--------------------------------------------------------
B--------------------------------------------------------
G--------------------------------------------------------
D—8--8--6--8--8--6--8--8--8--8--8--4--4--4--4--1--1--1--1
A—8--8--6--8--8--6--8--8--8--8--8--4--4--4--4--1--1--1--1
D—8--8--6--8--8--6--8--8--8--8--8--4--4--4--4--1--1--1--1 x2

E-------
B-------
G-------
D—4--1--
A—4--1--
D—4--1—-

Verse 2: 
Same as Verse 1

Chorus

Bridge:
E----------
B----------
G----------
D—8--1--4--
A—8--1--4--
D—8--1--4--x4

Then:
E--------------------------------------------------------
B--------------------------------------------------------
G--------------------------------------------------------
D—8--8--6--8--8--6--8--8--8--8--8--4--4--4--4--1--1--1--1
A—8--8--6--8--8--6--8--8--8--8--8--4--4--4--4--1--1--1--1
D—8--8--6--8--8--6--8--8--8--8--8--4--4--4--4--1--1--1--1 

Chorus

Outro:
E—6---
B—6---
G—6---
D-----
A-----
D-----

E----
B----
G----
D—8--
A—8--
D—8--

Thats it! I didnt tab some of the lead parts.
Please post corrections as necessary.
Thanks! – Austin S.

Comments about this tab

hmdet - 2006-09-03

Here is the little solo before the chorus, then the power chords used at various parts of the song.

Solo before Chorus:
E---- 6------11-----14-----
B---6-----11-----14--------
G----------—---------------
D—-------------------------
A——------------------------
D——------------------------

Power chords used at various points
E---6-----11-----14--------
B---6-----11-----14--------
G----------—---------------
D—-------------------------
A——------------------------
D——------------------------


Add a comment/correction

Complimentary Christian Ringtones
Dadamobile and CGR have teamed up to bring your favorite Christian artists right to your phone. Sign up today and get 10 complementary ringtones!
Tab Country
Did you know CGR has a sister site w/ country guitar tabs? Well we do! Its called Tab Country. It has a great archive with a lot of country tabs.
Rockin Tabs
Are you looking for a site that has rock guitar tabs? Then Rockintabs.com is the place for you. It is a budding site with many rock guitar tabs. Submit your tab today.
Tab Gallery
Tab Gallery has a compilation of christian, rock, and country tabs all in one place. Come visit us.