Guitar Tabs
song title    band name

Join Us Today!

Don't strum alone...
be a part of the largest online Christian music community. Browse thousands of guitar tabs and chat w/ musicians like yourself.


It's Free!

This tab has been rated a 3.75 out of 5 for accuracy. (8 votes)Sorry, but you must be logged in to rate this tab.
Click here to log-in, or you can click here to register.
(Registration is free)

All songs owned by corresponding publishing company. If you make copies of any song on this website, be sure to report your usage to CCLI.
Submitted by: iamnotfamous

Job 1:21; Habakkuk 3:17-18
BLESSED BE YOUR NAME
Words and Music by Matt and Beth Redman
2002 Thankyou Music (Admin. by EMI Christian Music Publishing)
All rights reserved. International copyright secured.
CCLI song #3798438

[This tab relates to song notes only]

CAPO IV KEY of G=ORIGINAL KEY of B 

  (Verses 1,2,3,4)
   G	     D                     Em7		     C2
1.
2.
3.
4.

E-------------------------------------------------------------------|
B----0---3---1--3----3----0--------0-----0------3----1----3---3~----|
G------------------------------2------------------------------------|
D-------------------------------------------------------------------|
A-------------------------------------------------------------------|
E-------------------------------------------------------------------|

                    G                    D
1.
2.
3.
4.

E---------------------------------------------------------|
B----0--------------0--------0-------3---1---3------3-----|
G-----------2---------------------------------------------|
D---------------------------------------------------------|
A---------------------------------------------------------|
E---------------------------------------------------------|

              C2
1.
2.
3.
4.

E--------------------------|
B-----0-------0------------|
G---------2------2----0~---|
D--------------------------|
A--------------------------|
E--------------------------|

   (Pre-Chorus)
   G                D                 Em7            C2

E----3--3--3------------0----2---3----5----5----3---------|
B--------------3----3------------------------------5^3~---|
G---------------------------------------------------------|
D---------------------------------------------------------|
A---------------------------------------------------------|
E---------------------------------------------------------|
 
   G                    D              Em7          C2

E-----3----3---3-----------0---2--3----5-----5-3----0---|
B------------------3----3-------------------------------|
G-------------------------------------------------------|
D-------------------------------------------------------|
A-------------------------------------------------------|
E-------------------------------------------------------|
		
   (Chorus)
                   G           D                    Em7      C2

E---7---5---5--3---3----3--5---5----7---5---5--3----3~-----------|
B----------------------------------------------------------------|
G----------------------------------------------------------------|
D----------------------------------------------------------------|
A----------------------------------------------------------------|
E----------------------------------------------------------------|
		
                    G           D                    Em7      C2

E----7---5---5--3---3----3--5---5----7---5---5--3----7--8-7---5^3~-|
B------------------------------------------------------------------|
G------------------------------------------------------------------|
D------------------------------------------------------------------|
A------------------------------------------------------------------|
E------------------------------------------------------------------|

     (Bridge)
         G              D       Em7            C2

E----5---7----7---7----55~--3---7----7---7----55^3~-------|
B---------------------------------------------------------|
G---------------------------------------------------------|
D---------------------------------------------------------|
A---------------------------------------------------------|
E---------------------------------------------------------|	

         G                    D         Em7             C2

E-----5--7-----7----7------5--5~--3-----7---7---7--5----5^3~--|
B-------------------------------------------------------------|
G-------------------------------------------------------------|
D-------------------------------------------------------------|
A-------------------------------------------------------------|
E-------------------------------------------------------------|

_______________
NOTES:
~     = Let it ring out
^     = slide

Chords given with the tab acts as a guide to missing lyrics.
Lyrics typed matches with tab.

INFO  :  (Verses 1,2,3,4) or (PreChorus) or (Chorus) or (Bridge)
CHORDS:   G	     D                     Em7		     C2
LYRICS:
TAB   :E-------------------------------------------------------------------|
       B----0---3---1--3----3----0--------0-----0------3----1----3---3~----|
       G------------------------------2------------------------------------|
       D-------------------------------------------------------------------|
       A-------------------------------------------------------------------|
       E-------------------------------------------------------------------|

CAPO OPTIONS:

CAPO 0 KEY of G=KEY of G
CAPO 1 KEY of G=KEY of G# or Ab
CAPO 2 KEY of G=KEY of A
CAPO 3 KEY of G=KEY of A# or Bb
CAPO 4 KEY of G=KEY of B 
CAPO 5 KEY of G=KEY of C 
CAPO 6 KEY of G=KEY of C# or Db 
CAPO 7 KEY of G=KEY of D
CAPO 8 KEY of G=KEY of D# or Eb
CAPO 9 KEY of G=KEY of E 
CAPO 10 KEY of G=KEY of F 
CAPO 11 KEY of G=KEY of F# or Gb
CAPO 12 KEY of G=KEY of G (1 OCTAVE HIGHER than original G) 

Comments about this tab

Dany Quintero - 2007-01-11

Actually... in think the song is one and a half note up, so the numbers must be different; but, even though, it works good.

God bless you guys


WashburnGuitar9 - 2007-05-07

ijust noticed something about this tab! ITS COPIED! from the ultimate worship tab book! I have the same book and I compared and it's the same THING!!! the chords and tabs! thas illiegal man!


PetroUK - 2008-04-14

Well you'd think it'd be the same, if it's right... :P


Add a comment/correction

Complimentary Christian Ringtones
Dadamobile and CGR have teamed up to bring your favorite Christian artists right to your phone. Sign up today and get 10 complementary ringtones!
Tab Country
Did you know CGR has a sister site w/ country guitar tabs? Well we do! Its called Tab Country. It has a great archive with a lot of country tabs.
Rockin Tabs
Are you looking for a site that has rock guitar tabs? Then Rockintabs.com is the place for you. It is a budding site with many rock guitar tabs. Submit your tab today.
Tab Gallery
Tab Gallery has a compilation of christian, rock, and country tabs all in one place. Come visit us.