Guitar Tabs
song title    band name

Join Us Today!

Don't strum alone...
be a part of the largest online Christian music community. Browse thousands of guitar tabs and chat w/ musicians like yourself.


It's Free!

This tab has been rated a 4.57 out of 5 for accuracy. (7 votes)Sorry, but you must be logged in to rate this tab.
Click here to log-in, or you can click here to register.
(Registration is free)

All songs owned by corresponding publishing company. If you make copies of any song on this website, be sure to report your usage to CCLI.
Submitted by: Adam K

Underoath-In Regards To Myself-
From-Define The Great Line-
Copyright  2006 Tooth & Nail Records
Drop D Tuning D-A-D-G-B-E

h=hammer on
s=slide
p=pull off
b=bend
rb=return bend
*=pinched harmonic
su=slide up
sd=slide down

Intro
E[-----------0------------------------------]
B[-----------4------------------------------]
G[--------------------9--9/9/9--------------]
D[--3-----------------7--7/7/7-------xxxx---]
A[--7-----1s3---------8--8/8/8-------xxxx---]x2
D[-0-3h5/0------7h10/0---------3p0-2-xxxx---]

Verse 1
E[-----------0------------------------------]
B[-----------4------------------------------]
G[--------------------9--9/9/9--------------]
D[--3-----------------7--7/7/7-------xxxx---]
A[--7-----1s3---------8--8/8/8-------xxxx---]x4
D[-0-3h5/0------7h10/0---------3p0-2-xxxx---]
Then
E[-------------------]
B[-------------------]
G[-------------------]
D[-0-xx-0-xx---------]
A[-0-xx-0-xx---------]x8
D[-0-xx-0-xx-2brb----]
(After the fourth time the other guitar plays something else [or keyboard]
but I cant make it out so I didnt post it)
Then
E[----------]
B[----------]
G[----------]
D[-1-7-0----]
A[-1-7-0----]
D[-1-7-0----]

Chorus
Gtr. 2
E[--------------------------------------]
B[--------------------------------------]
G[--------------------------------------]
D[-1----7---3--1-1-1-1---7---3--xx------]
A[-1----7---3--0-0-0-1---7---3--xx-5----]
D[-1----7---3--1-1-1-1---7---3--xx------]

E[---------------------------------0----]
B[---------------------------------0----]
G[---------------------------------0----]
D[-1----7---3--1-1-1-1---7---3--xx------]
A[-1----7---3--0-0-0-1---7---3--xx------]
D[-1----7---3--1-1-1-1---7---3--xx------]

Gtr. 1
E[--6-----------------6------------3*----]
B[-10----------------10------------------]
G[--8---14--10--------8--14--10-xx-------]
D[-------x---x------------x---x-xx-------]
A[------12---8-----------12---8-xx-------]
D[---------------------------------------]

E[--6-----------------6------------0-----]
B[-10----------------10------------0-----]
G[--8---14--10--------8--14--10-xx-0-----]
D[-------x---x------------x---x-xx-------]
A[------12---8-----------12---8-xx-------]
D[---------------------------------------]

Post-Chorus
Both guitars
E[------------------6-6b-------------------------]
B[------------------9-9b--------------10-10sd----]
G[-------------------------------------x--xsd----]
D[-0/2/3su-3sd2-0-0-------0/3/2-x2-0---8--8sd----]
A[-0/2/3su-5sd2-0-0-------0/3/2-x2-0-------------]
D[-0/2/3su-3sd2-0-0-------0/3/2-x2-0-------------]

E[------------------6-6b---------------------]
B[------------------9-9b---------------------]
G[-------------------------------------------]
D[-0/2/3su-3sd2-0-0-------0/3/2-x2-0---------]
A[-0/2/3su-5sd2-0-0-------0/3/2-x2-0--5sd----]
D[-0/2/3su-3sd2-0-0-------0/3/2-x2-0---------]
Then
Gtr. 1
E[------------------6-6b-------------------------]
B[------------------9-9b--------------10-10sd----]
G[-------------------------------------x--xsd----]
D[-0/2/3su-3sd2-0-0-------0/3/2-x2-0---8--8sd----]
A[-0/2/3su-5sd2-0-0-------0/3/2-x2-0-------------]
D[-0/2/3su-3sd2-0-0-------0/3/2-x2-0-------------]

E[------------------6-6b--------------------]
B[------------------9-9b--------------------]
G[------------------------------------------]
D[-0/2/3su-3sd2-0-0-------0/3/2-x2-0--su----]
A[-0/2/3su-5sd2-0-0-------0/3/2-x2-0--su----]
D[-0/2/3su-3sd2-0-0-------0/3/2-x2-0--su----]

Gtr. 2
E[----------------]
B[----------------]
G[-14----14brb----]
D[--x-----xbrb----]
A[-12----12brb----]x4
D[----------------]

Bridge
Gtr. 1
E[-----------------------]
B[-----------------------]
G[-------------------10--]
D[-0--------1---------x--]
A[-0--------0---------8--]
D[-0--------1------------]

Gtr. 2
E[---------------------------]
B[---10--------10------------]
G[----8---------8--------10--]
D[----7---------8---------x--]
A[------------------------8--]
D[---------------------------]
Then
Gtr. 1
E[------------------------]
B[-13---------------------]
G[--x--14--12--10---10----]
D[-10---x---x---x----x----]
A[-----12--10---8----8----]x3(or 4?)
D[------------------------]

Gtr. 2
E[-------------------]
B[-------------------]
G[-14----------10----]
D[--x-----------x----]x3(or 4)
A[-12-----------8----]
D[-------------------]
Then
Gtr. 1
E[---------------------------]
B[---------------------------]
G[----------------9/9/9/9----]
D[----------------x/x/x/x----]
A[-x8-x8/8/8--x8-x8/8/8/8----]
D[---------------------------]
Then
E[---------------------------]
B[---------------------------]
G[--9--9/9/9---9--9/9/9/9----]
D[--x--x/x/x---x--x/x/x/x----]
A[-x8-x8/8/8--x8-x8/8/8/8----]x3
D[---------------------------]

E[---------------]
B[---------------]
G[---------------]
D[-x1su--x7su----]
A[-x1su--x7su----]
D[-x1su--x7su----]

E[---------------------------]
B[---------------------------]
G[--9--9/9/9---9--9/9/9/9----]
D[--x--x/x/x---x--x/x/x/x----]
A[-x8-x8/8/8--x8-x8/8/8/8----]x2
D[---------------------------]

E[---------------]
B[---------------]
G[---------------]
D[-x1su--x7su----]
A[-x1su--x7su----]
D[-x1su--x7su----]
Then
E[----------]
B[----------]
G[----------]
D[-1-7-0----]
A[-1-7-0----]x4
D[-1-7-0----]
(on the fourth time slide down)
Then
Gtr. 2
E[----------]
B[----------]
G[----------]
D[-1-7-0----]
A[-1-7-0----]x4
D[-1-7-0----]

Gtr. 1
E[---------------]
B[---------------]
G[-14------------]
D[--x------------]
A[-12------------]x4
D[---------------]

E[-------]
B[-------]
G[-12----]
D[--x----]
A[-10----]
D[-------]


Tabbed by Adam K. Please Rate.

Comments about this tab

broken sheep - 2006-10-19

have one minor thing

E[------------------6-6b-------------------------]
B[------------------9-9b--------------10-10sd----]
G[-------------------------------------x--xsd----]
D[-0/2/3su-3sd2-0-0-------0/3/2-x2-0---8--8sd----]
A[-0/2/3su-5sd2-0-0-------0/3/2-x2-0-------------]
D[-0/2/3su-3sd2-0-0-------0/3/2-x2-0-------------]...

really should be

E[-----------------------------------------------]
B[------------------6-6b--------------10-10sd----]
G[------------------9-9b---------------x--xsd----]
D[-0/2/3su-3sd2-0-0-------0/3/2-x2-0---8--8sd----]
A[-0/2/3su-5sd2-0-0-------0/3/2-x2-0-------------]
D[-0/2/3su-3sd2-0-0-------0/3/2-x2-0-------------]

one more thing

in the intro, i think im hearing a
[-0-]
[-6-] first

then a

[-0-]
[-4-] second

but overall great tab


tsak - 2006-11-05

dude sweet job man i was gettn tabs somewhere else and it was totatly wrong ures is prretty on tho ........


underoath rocks


|)rink)v(tn|)ew - 2006-11-10

ahhh...dude, Adam K strikes again.

Awesome dude, but for the intro its ezier for me at least to play this:

E[---------------0-----------------------------]
B[---------------x-----------------------------]
G[---------------8-------9--9/9/9--------------]
D[-----------------------7--7/7/7-------xxxx---]
A[-----------------------8--8/8/8-------xxxx---]x2
D[-0-2h3s5/0/8h10--7h10/0---------3p0-2-xxxx---]

Its much ezier i think and it flows, it all flows and Timothyz Awesome!


Dark Tofu - 2007-02-08

I think the little riff in the background here...

E[-------------------]
B[-------------------]
G[-------------------]
D[-0-xx-0-xx---------]
A[-0-xx-0-xx---------]x8
D[-0-xx-0-xx-2brb----]

goes something like this..

E----------------------------------------------------
B----------------------------------------------------
G-------9h10--------9h10p9--------12p10--------12p10-
D-/7h10-------/7h10---------/7h10--------/7h10-------
A---------------------------------------------------- x2
D----------------------------------------------------

With Regards,

Aaron


Add a comment/correction

Complimentary Christian Ringtones
Dadamobile and CGR have teamed up to bring your favorite Christian artists right to your phone. Sign up today and get 10 complementary ringtones!
Tab Country
Did you know CGR has a sister site w/ country guitar tabs? Well we do! Its called Tab Country. It has a great archive with a lot of country tabs.
Rockin Tabs
Are you looking for a site that has rock guitar tabs? Then Rockintabs.com is the place for you. It is a budding site with many rock guitar tabs. Submit your tab today.
Tab Gallery
Tab Gallery has a compilation of christian, rock, and country tabs all in one place. Come visit us.