Guitar Tabs
song title    band name

Join Us Today!

Don't strum alone...
be a part of the largest online Christian music community. Browse thousands of guitar tabs and chat w/ musicians like yourself.


It's Free!

This tab has not yet been rated for accuracy.Sorry, but you must be logged in to rate this tab.
Click here to log-in, or you can click here to register.
(Registration is free)

All songs owned by corresponding publishing company. If you make copies of any song on this website, be sure to report your usage to CCLI.
Submitted by: Play2Praise36

By the Michael Gungor Band
From the Battle Cry album

This artist should be added because he has written songs with some powerful
lyrics.

Standard E tuning

I like to use a capo on the 2nd fret and play it in the C position but 
whatever. Enjoy. It is a good song and I recommend it to worship groups 
everywhere.


Intro:

e -----------------------------------------------------------
b -----------10----9-----10----9----10----9-----10----9------
g -----------11----11----11----10---11----11----11----10-----
g -----------------------------------------------------------
d -----------------------------------------------------------
A -----------------------------------------------------------
E -----------------------------------------------------------

e ----------------------------------------------------------
b -----------12----9----12----9----12-----------------------
g -----------11----9----11----9----11-----------9----11-----
g ------------------------------------------11--------------
d ----------------------------------------------------------
A ----------------------------------------------------------
E ----------------------------------------------------------

It repeats 4 times
The first 2 times it is just the electric with a light distortion
The rest of the band comes in after the 2nd time

Intro chords:

F#m - E

Chord progressions for 1st and 2nd verses:

D2 E C#m

F#m7 E D2

E C#m

F#m7 E D2

E

Chorus (1&2):

F#m7 E/G# A Bm A G

F#m7 E/G# A D DM7

Do Intro. 2x and then to verse 2

The instrumental part is just the intro progression. If you can work the 
F#m or A scales right, you can do an awesome solo. 

Comments about this tab

Ibanezr - 2006-07-17

Hey i was wondering what chords are being played during the part where they sing Our God Is An Awesome God?


Add a comment/correction

Complimentary Christian Ringtones
Dadamobile and CGR have teamed up to bring your favorite Christian artists right to your phone. Sign up today and get 10 complementary ringtones!
Tab Country
Did you know CGR has a sister site w/ country guitar tabs? Well we do! Its called Tab Country. It has a great archive with a lot of country tabs.
Rockin Tabs
Are you looking for a site that has rock guitar tabs? Then Rockintabs.com is the place for you. It is a budding site with many rock guitar tabs. Submit your tab today.
Tab Gallery
Tab Gallery has a compilation of christian, rock, and country tabs all in one place. Come visit us.