Guitar Tabs
song title    band name

Join Us Today!

Don't strum alone...
be a part of the largest online Christian music community. Browse thousands of guitar tabs and chat w/ musicians like yourself.


It's Free!

This tab has been rated a 4.00 out of 5 for accuracy. (1 vote)Sorry, but you must be logged in to rate this tab.
Click here to log-in, or you can click here to register.
(Registration is free)

All songs owned by corresponding publishing company. If you make copies of any song on this website, be sure to report your usage to CCLI.
Submitted by: Jimbob773

Artist:Pillar
Song: Frontline
Album: Where Do We Go From Here
Written by Pillar

I noticed the other tabs werent complete, and if there were, there were some
mistakes.  I hope I dont make any here!  I gathered this from other tabs and
made my own corrections in some places.

Drop C tuning (CGCFAd)

* palm muted
/ slide up
 slide down
 bend string
 release bend
h hammer on
p pull off

Intro
d|--------------------------------------------------------------
A|--------------------------------------------------------------
F|--------------------------------------------------------------
C|-5-5-8-8-7-7--5-5-5-5-8-8-7-7--8-8-10-10-8-8--0-0-0-0-8-8-7-7-
G|-5-5-5-5-5-5--5-5-5-5-5-5-5-5--8-8-8--8--8-8--0-0-0-0-0-0-0-0-
C|-5-5-5-5-5-5--5-5-5-5-5-5-5-5--8-8-8--8--8-8--0-0-0-0-0-0-0-0-
   * *          * * * *          * *            * * * * 
Verse

d|----------------------------------------------------------------------
A|----------------------------------------------------------------------
F|----------------------------------------------------------------------
C|-5-5-8-8-7-7--5-5-5-5-8-8-7-7--8-8-10-10-8-8--0-0-0-0-8-8-7-7-7h8p7-0-
G|-5-5-5-5-5-5--5-5-5-5-5-5-5-5--8-8--8--8-8-8--0-0-0-0-0-0-0-0---------
C|-5-5-5-5-5-5--5-5-5-5-5-5-5-5--8-8--8--8-8-8--0-0-0-0-0-0-0-0---------
   * *          * * * *          * *            * * * * 

d|-
A|-
F|-
C|-8-8-7-7-7-7-5-5--8-8-7-7-7-7-5-5--10-10-8-8-8-8-8-8--8-8-7-7-7-7-5-5-
G|-5-5-5-5-5-5-5-5--5-5-5-5-5-5-5-5---8--8-8-8-8-8-8-8--0-0-0-0-0-0-0-0-
C|-5-5-5-5-5-5-5-5--5-5-5-5-5-5-5-5---8--8-8-8-8-8-8-8--0-0-0-0-0-0-0-0-
   * * * * * * * *  * * * * * * * *   *  * * * * * * *  * * * * * * * *
(Yes, its all palm muted.)

d|--------------------------------------------------------------
A|--------------------------------------------------------------
F|--------------------------------------------------------------
C|-8-8-7-7-7-7-5-5--8-8-7-7-7-7-5-5--10-10-8-8-8-8-8-8--8-8-7-7-
G|-5-5-5-5-5-5-5-5--5-5-5-5-5-5-5-5---8--8-8-8-8-8-8-8--0-0-0-0-
C|-5-5-5-5-5-5-5-5--5-5-5-5-5-5-5-5---8--8-8-8-8-8-8-8--0-0-0-0-
   * * * * * * * *  * * * * * * * *   *  * * * * * * *  * * *
(The last note is played full. I didnt forget the P.M. there.)

Chorus

d|-------------------------------------------
A|-------------------------------------------
F|-------------------------------------------
C|-3h5-5-5-5--3h5-5-5-3h5--8-8-8-8-3-3-3/10--
G|-3h5-5-5-5--3h5-5-5-3h5--8-8-8-8-3-3-3/10--
C|-3h5-5-5-5--3h5-5-5-3h5--8-8-8-8-3-3-3/10--

d|-------------------------------------------
A|-------------------------------------------
F|-------------------------------------------
C|-3h5-5-5-5--3h5-5-5-3h5--8-8-8-8-0-0-3-3h5-
G|-3h5-5-5-5--3h5-5-5-3h5--8-8-8-8-0-0-3-3h5-
C|-3h5-5-5-5--3h5-5-5-3h5--8-8-8-8-0-0-3-3h5-
                                   * * *

d|-------------------------------------------
A|-------------------------------------------
F|-------------------------------------------
C|-3h5-5-5-5--3h5-5-5-3h5--8-8-8-8-3-3-3/10--
G|-3h5-5-5-5--3h5-5-5-3h5--8-8-8-8-3-3-3/10--
C|-3h5-5-5-5--3h5-5-5-3h5--8-8-8-8-3-3-3/10--

d|------------------------------
A|------------------------------
F|------------------------------
C|-1-1-1-1-1-1-1-1--0-0-0-0-3-3-
G|-1-1-1-1-1-1-1-1--0-0-0-0-3-3-
C|-1-1-1-1-1-1-1-1--0-0-0-0-3-3-

Verse

Chorus

Solo

d|-------------------------------------------------------
A|---------3-5-5b7r5-3-5-3-------------------------------
F|-----3h5-------------------5p3-5/7-5h7-7/10--7h10p7----
C|-5--------------------------------------------------10-
G|-5-----------------------------------------------------
C|-5-----------------------------------------------------

d|--------------------------------------------
A|-----6-6h8--8p6---6-------------------------
F|-5h7------------7---7-75--5/753-2--2h3---
C|------------------------------------------3-
G|--------------------------------------------
C|--------------------------------------------

d|-----------------|--------------------|-------------
A|-----------------|--------------------|-------------
F|-----------------|--------------------|-------------
C|-5-5-5-5---------|--------------------|-5-5-5-5-----
G|-5-5-5-5---------|--------5-------3---|-5-5-5-5-----
C|-5-5-5-5-0--21--|5-5-3-3---1-1-1---3-|-5-5-5-5-21-
           *       |--play 7 times------|

Chorus x2

Outro
d|------------
A|------------
F|------------
C|5-5-8-8-7-7-
G|5-5-5-5-5-5-
C|5-5-5-5-5-5-
  * * 

I think thats it.  Some of the timings, especially with the solo and chorus,
youll need to get yourself(just listen to the CD), but I think most
everything else is accurate.  Have fun!

Comments about this tab

|)rink)v(tn|)ew - 2006-11-26

Hey dude, Beautiful Tab but one thing I just know is that in the intro, this is what Noah does...

d|---------------------------------------------------------------
A|---------------------------------------------------------------
F|---------------------------------------------------------------
C|-5-5-8-8-7-7--5-5-5-5-8-8-7-7--8-8-10-10-8-8--0-0-0-0-1010-----
G|-5-5-5-5-5-5--5-5-5-5-5-5-5-5--8-8-8--8--8-8--0-0-0-0-0-0-1212-
C|-5-5-5-5-5-5--5-5-5-5-5-5-5-5--8-8-8--8--8-8--0-0-0-0-0-0-0-0--
* * * * * * * * * * * *


cris rules2 - 2008-03-15

no its not, soz:


-0 0--0 0--10 10
-0 0--0 0--0 0
-0 0--0 0--0 0

the tab maker is right


cris rules2 - 2008-03-15

ok forget what i just said, i meant


cris rules2 - 2008-03-15

ohh dw


Add a comment/correction

Complimentary Christian Ringtones
Dadamobile and CGR have teamed up to bring your favorite Christian artists right to your phone. Sign up today and get 10 complementary ringtones!
Tab Country
Did you know CGR has a sister site w/ country guitar tabs? Well we do! Its called Tab Country. It has a great archive with a lot of country tabs.
Rockin Tabs
Are you looking for a site that has rock guitar tabs? Then Rockintabs.com is the place for you. It is a budding site with many rock guitar tabs. Submit your tab today.
Tab Gallery
Tab Gallery has a compilation of christian, rock, and country tabs all in one place. Come visit us.