Guitar Tabs
song title    band name

Join Us Today!

Don't strum alone...
be a part of the largest online Christian music community. Browse thousands of guitar tabs and chat w/ musicians like yourself.


It's Free!

This tab has been rated a 5.00 out of 5 for accuracy. (1 vote)Sorry, but you must be logged in to rate this tab.
Click here to log-in, or you can click here to register.
(Registration is free)

All songs owned by corresponding publishing company. If you make copies of any song on this website, be sure to report your usage to CCLI.
Submitted by: Michael_bygrace

Medley-Give/Turn Your Eyes Upon Jesus/Your Love Oh Lord
Give

Intro
e----------------
B----------------
G----------------
D--4---5---7-4---    
A-5---5---5---7-5
E----------------

Played on Bass but works on guitar as well

Verse

The same tab above is played twice for the first verse

Verse 2 Intro

Electric - tab above repeated

Acoustic -

D     G     D     G

Verse 2

Electric - tab above repeated

Acoustic - 

D     G     D     Gsus2
D     Gsus2 D     Gsus2

Chorus - 

Electric and Acoustic both (electric plays power chords) - 

G5    D     G5    Asus2     
G     Bm9   A     D

Turn Your Eyes Upon Jesus (transition)

Electric and Acoustic both - Intro 

D     G/D     D     G/D

Verse

D     A     Bm     D
G     A     Asus   A
D     A     Bm     G     D     A     D (play intro chords again)

(Repeat verse chords for Verse 2)

Solo

Acoustic -
D     A     Bm     G
D     Asus2 Bm     G

Electric -(Acoustic chords added for timing)
  D              A                  Bm            G
e--------------------------------------------------
B-15-15-15-15-15-10-10-10-9-10-9h10-12-12b*-12p11-8
G--------------------------------------------------
D--------------------------------------------------
A--------------------------------------------------
E--------------------------------------------------

  D              Asus2       Bm                G
e------------------------------------------------------------
B-15-14-15-14h15-17-15-17-15-18/19-19-19-19-19-19/20-20-20-20
G------------------------------------------------------------
D------------------------------------------------------------
A------------------------------------------------------------
E------------------------------------------------------------

b*-This is a half step bend
h-hammer-on
p-pull-off
/-slide
(Some notes of the lead part can be moved to to high e-string, but I think its
easier to play them all on the B-string)

Bridge("Give Yourself Away" part)

Guitar - powerchords of Acoustic chords

Acoustic - 

D     A     Bm     G
D     Asus2 Bm     Gsus   G 
Gsus  G     Gsus   G

Outro Chorus (transition) - 

Acoustic - 

G     D     G     A     
G     Bm/F# A     G    A7
G/B   A7/C#
G     A7/D  G/D   A7/D

Your Love Oh Lord

Verse

Acoustic - 

G     A7/G  
G     A7/G
G     A7/G
G     A7/G
(Now electric comes in with power chords)
Em7   Csus2   G5    D/F#
Em7   Csus2   G     D/F#

Chorus

Acoustic and Electric both

D  Dsus  D    Cadd9   G
D  Dsus  D    Csus2   Am7   D

Solo

Acoustic - 

G     Csus2    G    Dsus/F#
Em7   Csus2    G    Dsus/F#

Electric-

 G      Csus2       G     Dsus/F#        Em7        Csus2       G      Dsus/F#
e-------12h15-12------------------------------------12h15-12-15-17/19~*-------
B-12-15----------15-12h15---------------------12-15---------------------------
G-----------------------------------------------------------------------------
D-----------------------------------------------------------------------------
A-----------------------------------------------------------------------------
E-----------------------------------------------------------------------------

~* - vibrato
(Acoustic chords added for timing)

Chorus(2X)

Outro 

Acoustic - 

G     Csus2
G     D/F#
Em7   Csus2
G (pluck each string individually)- 320033

CHORDS USED

Acoustic - 

D -      xx0232
G -      320033  (or 320003, but the last chord of the song must be 320033)
Gsus2 -  3x0233
G5 -     3x0033
Asus2 -  x02200
Bm9 -    x20222
A -      x02220
G/D -    xx0003
Bm -     x24432
Asus -   x02230
Gsus -   3x0013
Bm/F# -  xx4432
A7 -     x02020
G/B -    x20003
A7/C# -  x42223
A7/D -   xx0223
A7/G -   302020
Em7 -    022030
Csus2 -  x32033
D/F# -   20023x
Dsus -   xx0233
Cadd9 -  x23030
Am7 -    x02010
Dsus/F#- 2x0233


Electric

G5 -    355xxx
D -     x577xx
Asus2 - xx22xx
Bm9 -   x24432  (same as Bm)
A -     5776xx
G/D -   xx0003  (same as acoustic)
G -     3554xx
Asus -  xx22xx  (same as Asus2)
Gsus -  355533
Em7 -   022xxx
Csus2 - x23322
D/F# -  x577xx  (same as D)
Dsus  - x57755
Cadd9 - x23300
Am7 -   577xxx

Its my 1st tab but Im 100% positive these are the right chords to play,
You can play the lead any way you want but I just put them the way I play them.
God Bless
~Michael~







Comments about this tab

No comments/corrections found. Add your own

Complimentary Christian Ringtones
Dadamobile and CGR have teamed up to bring your favorite Christian artists right to your phone. Sign up today and get 10 complementary ringtones!
Tab Country
Did you know CGR has a sister site w/ country guitar tabs? Well we do! Its called Tab Country. It has a great archive with a lot of country tabs.
Rockin Tabs
Are you looking for a site that has rock guitar tabs? Then Rockintabs.com is the place for you. It is a budding site with many rock guitar tabs. Submit your tab today.
Tab Gallery
Tab Gallery has a compilation of christian, rock, and country tabs all in one place. Come visit us.