Guitar Tabs
song title    band name

Join Us Today!

Don't strum alone...
be a part of the largest online Christian music community. Browse thousands of guitar tabs and chat w/ musicians like yourself.


It's Free!

This tab has not yet been rated for accuracy.Sorry, but you must be logged in to rate this tab.
Click here to log-in, or you can click here to register.
(Registration is free)

All songs owned by corresponding publishing company. If you make copies of any song on this website, be sure to report your usage to CCLI.
Submitted by: (matt)

song: this time is real
artist: haste the day
album: when everything falls

intro
----------------
----------------
----------------
--5-7-8--7-5-3--
--5-7-8--8-7-5--
--5-7-8---------

verse
---------------------------------
---------------------------------
---------------------------------
-7-5-3--9--7-5--10-9-10---5--10-- 
-8-7-5--10-8-7--10-9-10---5--10--
----------------10-9-10---5--10--

palm mute verse
------------------------------------------
------------------------------------------
------------------------------------------
-0/0/0--0/0/0--0/0/0--0/0/0--10--- x4
-0/0/0--0/0/0--0/0/0--0/0/0--10---
-0/0/0--0/0/0--0/0/0--0/0/0--10---

verse

palm mute verse

chorus
-------------------------------------------------------
-------------------------------------------------------
-7777777-----------------------------------------------
-7777777-88888888-55555555-00000000-33333333-77777777--
-5555555-88888888-55555555-00000000-33333333-77777777--
---------88888888-55555555-00000000-33333333-77777777--

palm mute after chorus
-----------------------------------------------------------------------
-----------------------------------------------------------------------
-----------------------------------------------------------------------
-0/0/0--0/0/0--0/0/0/0/0--0/0/0--0/0/0/0/0-----
-0/0/0--0/0/0--0/0/0/0/0--0/0/0--0/0/0/0/0-----
-0/0/0--0/0/0--0/0/0/0/0--0/0/0--0/0/0/0/0-----
                                                                        x3
-----------------------------------------------------------------------
-----------------------------------------------------------------------
-----------------------------------------------------------------------
-0/0/0--0/0/0/0/0--0/0/0--5-7-8-------------------------
-0/0/0--0/0/0/0/0--0/0/0--5-7-8-------------------------
-0/0/0--0/0/0/0/0--0/0/0--5-7-8-------------------------

---------------
---------------
-5-7-8-7-5-3---
-5-7-8-8-7-5---
-5-7-8---------

chorus

hey i know that this tab is no way near good so if 
you guys want to add things please do cuz it needs
work 
cheers
matt 

Comments about this tab

underoathlover - 2006-10-12

First of all... I love Haste The Day... But i dont think this tab is right...it might just be me...i dont know... ill ask my friend...anyway...good job!!!!


Add a comment/correction

Complimentary Christian Ringtones
Dadamobile and CGR have teamed up to bring your favorite Christian artists right to your phone. Sign up today and get 10 complementary ringtones!
Tab Country
Did you know CGR has a sister site w/ country guitar tabs? Well we do! Its called Tab Country. It has a great archive with a lot of country tabs.
Rockin Tabs
Are you looking for a site that has rock guitar tabs? Then Rockintabs.com is the place for you. It is a budding site with many rock guitar tabs. Submit your tab today.
Tab Gallery
Tab Gallery has a compilation of christian, rock, and country tabs all in one place. Come visit us.