Guitar Tabs
song title    band name

Join Us Today!

Don't strum alone...
be a part of the largest online Christian music community. Browse thousands of guitar tabs and chat w/ musicians like yourself.


It's Free!

This tab has been rated a 3.00 out of 5 for accuracy. (3 votes)Sorry, but you must be logged in to rate this tab.
Click here to log-in, or you can click here to register.
(Registration is free)

All songs owned by corresponding publishing company. If you make copies of any song on this website, be sure to report your usage to CCLI.
Submitted by: tl_guitarnut

Song: We Are
Artist: Number One Gun
cd: Promises for the Imperfect
Tuning: Standard (EADGBE)


Intro:
e | ------------------------------|
B | ------------------------------|
G | -6-6-6-3-4-6-6-6-6------------|


Then:
e | -----------------------------------------|
B | -7-6----7-6---7-6--9-7-6-9-7-6-9-7-------| 2x
G | -----6------6----------------------------|


Verse 1: 
e | ----------------------------------------------------------------|
B | ---6-7-6-7-6-7--6-7-6-7------6-7--6-7---6-7--6-7--6-7-----------| 
G | -6----6---6----6---6--------4----4-----4----4----4--------------|
D | ----------------------------------------------------------------|


Pre-chorus (I know, its not long)
e | -------------------|
B | -------------------|
G | -------------------|
D | -11-11-11-11-------|
A | -11-11-11-11-------|
E | -9--9--9--9--------|


Chorus:
e | --------------------------------------------|
B | --------------------------------------------|
G | --------------------------------------------|
D | -11-11-11-11-13-13-13-13-9-9-9-9------------| 4x
A | -11-11-11-11-13-13-13-13-9-9-9-9------------|
E | -9---9-9--9---9-11-11-11-7-7-7-7------------|


Post-Chorus
e | ----------------------|
B | ----------------------|
G | -6-6-6-6-3-4-6-6-6-6--|
D | ----------------------|


Then:
e | ------------------------------------------|
B | -7-6---7-6---7-6-9-7-6-9-7-6-9-6----------|
G | ----6------6------------------------------|


Verse 2: same as Verse 1


Pre-chorus

Chorus 4x

Bridge Guitar 2: same as chorus 4x

Guitar 1 plays this for every power chord
B |-7-|


Chorus 6x




Thats it, I know there seems to be more layering in the song, but thats 
all I have. This is a really cool band, and I am not sure why not many people
have tabbed any of their stuff out.  Enjoy and Please comment!

God Bless,
tl_guitarnut

Comments about this tab

iflysioux - 2006-09-06

for the chorus there's one chord 13
13
9

is that supposed to be 13
13
11
If someone could clarify that'd be great


tl_guitarnut - 2006-09-08

oops sorry forgot about that, yeah your right its supposed to be
D | -13-|
A | -13-|
E | -11-|


Add a comment/correction

Complimentary Christian Ringtones
Dadamobile and CGR have teamed up to bring your favorite Christian artists right to your phone. Sign up today and get 10 complementary ringtones!
Tab Country
Did you know CGR has a sister site w/ country guitar tabs? Well we do! Its called Tab Country. It has a great archive with a lot of country tabs.
Rockin Tabs
Are you looking for a site that has rock guitar tabs? Then Rockintabs.com is the place for you. It is a budding site with many rock guitar tabs. Submit your tab today.
Tab Gallery
Tab Gallery has a compilation of christian, rock, and country tabs all in one place. Come visit us.