Guitar Tabs
song title    band name

Join Us Today!

Don't strum alone...
be a part of the largest online Christian music community. Browse thousands of guitar tabs and chat w/ musicians like yourself.


It's Free!

This tab has not yet been rated for accuracy.Sorry, but you must be logged in to rate this tab.
Click here to log-in, or you can click here to register.
(Registration is free)

All songs owned by corresponding publishing company. If you make copies of any song on this website, be sure to report your usage to CCLI.
Submitted by: Asa Gaston

Title: Child
Artist: Tait
Album: Lose This Life
Written by Michael Tait, Chad Chapin and Mark Heimerman
Track: -7

Transcripted by Asa Gaston

Tuning: STANDARD ( E-A-D-G-B-E )

Guitar 1 -{ E-A-D-G-B-E }- Justin York - Rythym
Guitar 2 -{ E-A-D-G-B-E }- Percussion - Lead

                               DEPUT TRANSCRIPTION!!!

This is my first tab on this site, but not my first ever. I usually post my tabs at
UltimateGuitar. But they didnt have a lick of christian music. So I have been
Transfering songs from here and transcripting songs to build their christian rep
up. Rate after youve played, great song by the way.

INTRO

NOTE CONCERNING THE LACK OF GUITAR IN THE INTRO:
The intro doesnt have a guitar, just piano and percussion effects.
However, a song as good as this one cant be played souly on the 
guitar without some kind of intro. So I tabbed a guitar intro matching
the notes played by the piano (chord-wise)

0:00-

       C#m*            F#*             C#m*            F#* 
Gtr.1 (clean)
E|------4--------|------2--------|------4--------|------2--------|
B|------5--------|------2--------|------5--------|------2--------|
G|------6--------|------3--------|------6--------|------3--------|
D|------6--------|------4--------|------6--------|------4--------|
A|------4--------|------4--------|------4--------|------4--------|
E|------4--------|------2--------|------4--------|------2--------|

       C#m*            F#*             C#m*            F#* 
Gtr.1
E|------4--------|------2--------|------4--------|------2--------|
B|------5--------|------2--------|------5--------|------2--------|
G|------6--------|------3--------|------6--------|------3--------|
D|------6--------|------4--------|------6--------|------4--------|
A|------4--------|------4--------|------4--------|------4--------|
E|------4--------|------2--------|------4--------|------2--------|


VERSE

       C#m*            F#*             C#m*            F#* 
Gtr.1 (clean)
E|------4--------|------2--------|------4--------|------2--------|
B|------5--------|------2--------|------5--------|------2--------|
G|------6--------|------3--------|------6--------|------3--------|
D|------6--------|------4--------|------6--------|------4--------|
A|------4--------|------4--------|------4--------|------4--------|
E|------4--------|------2--------|------4--------|------2--------|

       C#m*            F#*             C#m*            F#* 
Gtr.1
E|------4--------|------2--------|------4--------|------2--------|
B|------5--------|------2--------|------5--------|------2--------|
G|------6--------|------3--------|------6--------|------3--------|
D|------6--------|------4--------|------6--------|------4--------|
A|------4--------|------4--------|------4--------|------4--------|
E|------4--------|------2--------|------4--------|------2--------|

  C#m*              F#*                       C#m*              F#*                 
Gtr.1
E|-4---------------|-2-----------------------|-4---------------|-2-----------------------|
B|-5---------------|-2-----------------------|-5---------------|-2-----------------------|
G|-6---------------|-3-----------------------|-6---------------|-3-----------------------|
D|-6---------------|-4-----------------------|-6---------------|-4-----------------------|
A|-4---------------|-4-----------------------|-4---------------|-4-----------------------|
E|-4---------------|-2-----------------------|-4---------------|-2-----------------------|
Gtr.2 (dist.w/ effects)
E|-----------------|-------------------------|-----------------|-------------------------|
B|-----------------|-11-11-11-12-12-12-11-11-|-----------------|-11-11-11-12-12-12-11-11-|
G|-8^9-8^9-8^9-8^9-|-11-11-11-11-11-11-11-11-|-8^9-8^9-8^9-8^9-|-11-11-11-11-11-11-11-11-|
D|-----------------|-------------------------|-----------------|-------------------------|
A|-----------------|-------------------------|-----------------|-------------------------|
E|-----------------|-------------------------|-----------------|-------------------------|

  C#m*              F#*                        B*               C#*                 
Gtr.1
E|-4---------------|-2-----------------------|-2---------------|-4-----------------------|
B|-5---------------|-2-----------------------|-4---------------|-6-----------------------|
G|-6---------------|-3-----------------------|-4---------------|-6-----------------------|
D|-6---------------|-4-----------------------|-4---------------|-6-----------------------|
A|-4---------------|-4-----------------------|-2---------------|-2-----------------------|
E|-4---------------|-2-----------------------|-2---------------|-2-----------------------|
Gtr.2 (dist.)
E|-----------------|-------------------------|-----------------|-------------------------|
B|-----------------|-11-11-11-12-12-12-11-11-|-----------------|-9--9--9--9--9--9--9--9--|
G|-8^9-8^9-8^9-8^9-|-11-11-11-11-11-11-11-11-|-8^9-8^9-8^9-8^9-|-10-10-10-10-10-10-10-10-|
D|-----------------|-------------------------|-----------------|-------------------------|
A|-----------------|-------------------------|-----------------|-------------------------|
E|-----------------|-------------------------|-----------------|-------------------------|


PRE-CHORUS

Gtr.1
E|---2--------|---2--------|---2--------|---2--------|---2--------|---2--------|
B|---4--------|---2--------|---4--------|---2--------|---4--------|---2--------|
G|---4--------|---3--------|---4--------|---3--------|---4--------|---3--------|
D|---4--------|---4--------|---4--------|---4--------|---4--------|---4--------|
A|---2--------|---4--------|---2--------|---4--------|---2--------|---4--------|
E|---2--------|---2--------|---2--------|---2--------|---2--------|---2--------|
Gtr.2
E|------------|------------|------------|------------|------------|------------|
B|---12--11---|---9--11----|---12--11---|---9--------|---12--11---|---9--11----|
G|------------|------------|------------|------------|------------|------------|
D|------------|------------|------------|------------|------------|------------|
A|------------|------------|------------|------------|------------|------------|
E|------------|------------|------------|------------|------------|------------|


Gtr.1
E|---2--------|---4--------|------------|------------|------------|------------|
B|---4--------|---6--------|------------|------------|------------|------------|
G|---4--------|---6--------|------------|------------|------------|------------|
D|---4--------|---6--------|------------|------------|------------|------------|
A|---2--------|---4--------|------------|------------|------------|------------|
E|---2--------|---4--------|------------|------------|------------|------------|
Gtr.2
E|-12--11--9--|---9--------|------------|------------|------------|------------|
B|------------|-11---------|------------|------------|------------|------------|
G|------------|------------|------------|------------|------------|------------|
D|------------|------------|------------|------------|------------|------------|
A|------------|------------|------------|------------|------------|------------|
E|------------|------------|------------|------------|------------|------------|


CHORUS

       B*         F#*         C#m*        Em*
Gtr.1
E|-----2-----|-----2-----|-----4-----|-----7-----|
B|-----4-----|-----2-----|-----5-----|-----8-----|
G|-----4-----|-----3-----|-----6-----|-----9-----|
D|-----4-----|-----4-----|-----6-----|-----9-----|
A|-----2-----|-----4-----|-----4-----|-----7-----|
E|-----2-----|-----2-----|-----4-----|-----7-----|

       B*         F#*         C#m*         E*         Em*          B* 
Gtr.1
E|-----2-----|-----2-----|-----4-----|-----7-----|-----7-----|-----2-----|
B|-----4-----|-----2-----|-----5-----|-----9-----|-----8-----|-----4-----|
G|-----4-----|-----3-----|-----6-----|-----9-----|-----9-----|-----4-----|
D|-----4-----|-----4-----|-----6-----|-----9-----|-----9-----|-----4-----|
A|-----2-----|-----4-----|-----4-----|-----7-----|-----7-----|-----2-----|
E|-----2-----|-----2-----|-----4-----|-----7-----|-----7-----|-----2-----|


VERSE 2

  C#m*              F#*                       C#m*              F#*                 
Gtr.1
E|-4---------------|-2-----------------------|-4---------------|-2-----------------------|
B|-5---------------|-2-----------------------|-5---------------|-2-----------------------|
G|-6---------------|-3-----------------------|-6---------------|-3-----------------------|
D|-6---------------|-4-----------------------|-6---------------|-4-----------------------|
A|-4---------------|-4-----------------------|-4---------------|-4-----------------------|
E|-4---------------|-2-----------------------|-4---------------|-2-----------------------|
Gtr.2
E|-----------------|-------------------------|-----------------|-------------------------|
B|-----------------|-11-11-11-12-12-12-11-11-|-----------------|-11-11-11-12-12-12-11-11-|
G|-8^9-8^9-8^9-8^9-|-11-11-11-11-11-11-11-11-|-8^9-8^9-8^9-8^9-|-11-11-11-11-11-11-11-11-|
D|-----------------|-------------------------|-----------------|-------------------------|
A|-----------------|-------------------------|-----------------|-------------------------|
E|-----------------|-------------------------|-----------------|-------------------------|

  C#m*              F#*                        B*               C#*                 
Gtr.1
E|-4---------------|-2-----------------------|-2---------------|-4-----------------------|
B|-5---------------|-2-----------------------|-4---------------|-6-----------------------|
G|-6---------------|-3-----------------------|-4---------------|-6-----------------------|
D|-6---------------|-4-----------------------|-4---------------|-6-----------------------|
A|-4---------------|-4-----------------------|-2---------------|-2-----------------------|
E|-4---------------|-2-----------------------|-2---------------|-2-----------------------|
Gtr.2 (dist.)
E|-----------------|-------------------------|-----------------|-------------------------|
B|-----------------|-11-11-11-12-12-12-11-11-|-----------------|-9--9--9--9--9--9--9--9--|
G|-8^9-8^9-8^9-8^9-|-11-11-11-11-11-11-11-11-|-8^9-8^9-8^9-8^9-|-10-10-10-10-10-10-10-10-|
D|-----------------|-------------------------|-----------------|-------------------------|
A|-----------------|-------------------------|-----------------|-------------------------|
E|-----------------|-------------------------|-----------------|-------------------------|


PRE-CHORUS

Gtr.1
E|---2--------|---2--------|---2--------|---2--------|---2--------|---2--------|
B|---4--------|---2--------|---4--------|---2--------|---4--------|---2--------|
G|---4--------|---3--------|---4--------|---3--------|---4--------|---3--------|
D|---4--------|---4--------|---4--------|---4--------|---4--------|---4--------|
A|---2--------|---4--------|---2--------|---4--------|---2--------|---4--------|
E|---2--------|---2--------|---2--------|---2--------|---2--------|---2--------|
Gtr.2
E|------------|------------|------------|------------|------------|------------|
B|---12--11---|---9--11----|---12--11---|---9--------|---12--11---|---9--11----|
G|------------|------------|------------|------------|------------|------------|
D|------------|------------|------------|------------|------------|------------|
A|------------|------------|------------|------------|------------|------------|
E|------------|------------|------------|------------|------------|------------|


Gtr.1
E|---2--------|---4--------|------------|------------|------------|------------|
B|---4--------|---6--------|------------|------------|------------|------------|
G|---4--------|---6--------|------------|------------|------------|------------|
D|---4--------|---6--------|------------|------------|------------|------------|
A|---2--------|---4--------|------------|------------|------------|------------|
E|---2--------|---4--------|------------|------------|------------|------------|
Gtr.2
E|-12--11--9--|---9--------|------------|------------|------------|------------|
B|------------|-11---------|------------|------------|------------|------------|
G|------------|------------|------------|------------|------------|------------|
D|------------|------------|------------|------------|------------|------------|
A|------------|------------|------------|------------|------------|------------|
E|------------|------------|------------|------------|------------|------------|


CHORUS

       B*         F#*         C#m*        Em*
Gtr.1
E|-----2-----|-----2-----|-----4-----|-----7-----|
B|-----4-----|-----2-----|-----5-----|-----8-----|
G|-----4-----|-----3-----|-----6-----|-----9-----|
D|-----4-----|-----4-----|-----6-----|-----9-----|
A|-----2-----|-----4-----|-----4-----|-----7-----|
E|-----2-----|-----2-----|-----4-----|-----7-----|

       B*         F#*         C#m*         E*         Em*          B* 
Gtr.1
E|-----2-----|-----2-----|-----4-----|-----7-----|-----7-----|-----2-----|
B|-----4-----|-----2-----|-----5-----|-----9-----|-----8-----|-----4-----|
G|-----4-----|-----3-----|-----6-----|-----9-----|-----9-----|-----4-----|
D|-----4-----|-----4-----|-----6-----|-----9-----|-----9-----|-----4-----|
A|-----2-----|-----4-----|-----4-----|-----7-----|-----7-----|-----2-----|
E|-----2-----|-----2-----|-----4-----|-----7-----|-----7-----|-----2-----|


BRIDGE {Again, guitared to match piano notes}

Gtr.1
E|-------------------------|-------------------------|-----------------|-----------------|
B|-12-12-12-12-12-12-12-12-|-11-11-11-11-11-11-11-11-|-9-9-9-9-9-9-9-9-|-7-7-7-7-7-7-7-7-|
G|-11-11-11-11-11-11-11-11-|-11-11-11-11-11-11-11-11-|-9-9-9-9-9-9-9-9-|-9-9-9-9-9-9-9-9-|
D|-------------------------|-------------------------|-----------------|-----------------|
A|-------------------------|-------------------------|-----------------|-----------------|
E|-------------------------|-------------------------|-----------------|-----------------|

Gtr.1
E|-------------------------|-------------------------|-----------------|-----------------|
B|-12-12-12-12-12-12-12-12-|-11-11-11-11-11-11-11-11-|-9-9-9-9-9-9-9-9-|-7-7-7-7-7-7-7-7-|
G|-11-11-11-11-11-11-11-11-|-11-11-11-11-11-11-11-11-|-9-9-9-9-9-9-9-9-|-9-9-9-9-9-9-9-9-|
D|-------------------------|-------------------------|-----------------|-----------------|
A|-------------------------|-------------------------|-----------------|-----------------|
E|-------------------------|-------------------------|-----------------|-----------------|


Gtr.1
E|-------------------------|-------------------------|-----------------|-----------------|
B|-12-12-12-12-12-12-12-12-|-11-11-11-11-11-11-11-11-|-9-9-9-9-9-9-9-9-|-7-7-7-7-7-7-7-7-|
G|-11-11-11-11-11-11-11-11-|-11-11-11-11-11-11-11-11-|-9-9-9-9-9-9-9-9-|-9-9-9-9-9-9-9-9-|
D|-------------------------|-------------------------|-----------------|-----------------|
A|-------------------------|-------------------------|-----------------|-----------------|
E|-------------------------|-------------------------|-----------------|-----------------|
Gtr.2
E|-------------14----------|-------------------------|---------14------|-----------------|
B|-12----12-----------12---|-11----11----11----11----|-----------------|-----------------|
G|-------------------------|-------------------------|-13--13------13--|-11--11--11--11--|
D|-------------------------|-------------------------|-----------------|-----------------|
A|-------------------------|-------------------------|-----------------|-----------------|
E|-------------------------|-------------------------|-----------------|-----------------|


Gtr.1
E|-------------------------|-------------------------|-----------------|-----------------|
B|-12-12-12-12-12-12-12-12-|-11-11-11-11-11-11-11-11-|-9-9-9-9-9-9-9-9-|-7-7-7-7-7-7-7-7-|
G|-11-11-11-11-11-11-11-11-|-11-11-11-11-11-11-11-11-|-9-9-9-9-9-9-9-9-|-9-9-9-9-9-9-9-9-|
D|-------------------------|-------------------------|-----------------|-----------------|
A|-------------------------|-------------------------|-----------------|-----------------|
E|-------------------------|-------------------------|-----------------|-----------------|
Gtr.2
E|-------------14----------|-------------------------|---------14------|-----------------|
B|-12----12-----------12---|-11----11----11----11----|-----------------|-----------------|
G|-------------------------|-------------------------|-13--13------13--|-11--11--11--11--|
D|-------------------------|-------------------------|-----------------|-----------------|
A|-------------------------|-------------------------|-----------------|-----------------|
E|-------------------------|-------------------------|-----------------|-----------------|


GUITAR SOLO

Gtr.1
E|-----------------------|-----------14~~~~~|------------------------|------------14~~~~~|
B|-12-11-9-12-11-9-12-11-|-9-12-11-9--------|-12-11-9-12-11----12-11-|-9-12-11-----------|
G|-----------------------|------------------|---------------11-------|---------11--------|
D|-----------------------|------------------|------------------------|-------------------|
A|-----------------------|------------------|------------------------|-------------------|
E|-----------------------|------------------|------------------------|-------------------|

Gtr.1
E|-----------------------|-----------14~~~~~|-------------------------|------------------|
B|-12-11-9-12-11---12-11-|-9-12-11----------|-12-12-12-12-10-10-10-10-|-8-8-8-8-7-7-7-7--|
G|---------------9-------|---------9--------|-------------------------|------------------|
D|-----------------------|------------------|-------------------------|------------------|
A|-----------------------|------------------|-------------------------|------------------|
E|-----------------------|------------------|-------------------------|------------------|


INTERLUDE

       B*         F#*         C#m*        Em*
Gtr.1
E|-----2-----|-----2-----|-----4-----|-----7-----|
B|-----4-----|-----2-----|-----5-----|-----8-----|
G|-----4-----|-----3-----|-----6-----|-----9-----|
D|-----4-----|-----4-----|-----6-----|-----9-----|
A|-----2-----|-----4-----|-----4-----|-----7-----|
E|-----2-----|-----2-----|-----4-----|-----7-----|


CHORUS

       B*         F#*         C#m*        Em*
Gtr.1
E|-----2-----|-----2-----|-----4-----|-----7-----|
B|-----4-----|-----2-----|-----5-----|-----8-----|
G|-----4-----|-----3-----|-----6-----|-----9-----|
D|-----4-----|-----4-----|-----6-----|-----9-----|
A|-----2-----|-----4-----|-----4-----|-----7-----|
E|-----2-----|-----2-----|-----4-----|-----7-----|

       B*         F#*         C#m*         E*         Em*          B* 
Gtr.1
E|-----2-----|-----2-----|-----4-----|-----7-----|-----7-----|-----2-----|
B|-----4-----|-----2-----|-----5-----|-----9-----|-----8-----|-----4-----|
G|-----4-----|-----3-----|-----6-----|-----9-----|-----9-----|-----4-----|
D|-----4-----|-----4-----|-----6-----|-----9-----|-----9-----|-----4-----|
A|-----2-----|-----4-----|-----4-----|-----7-----|-----7-----|-----2-----|
E|-----2-----|-----2-----|-----4-----|-----7-----|-----7-----|-----2-----|


OUTRO

       B*         F#*          E*       
Gtr.1
E|-----2-----|-----2-----|-----7-----|
B|-----4-----|-----2-----|-----9-----|
G|-----4-----|-----3-----|-----9-----|
D|-----4-----|-----4-----|-----9-----|
A|-----2-----|-----4-----|-----7-----|
E|-----2-----|-----2-----|-----7-----|



NOTE: Very good song by Tait. I think hes almost the best out of the three dc Talk
      singers. I still gotta hang with Kevin Max though, you just cant beat his vioce.
      I saw Tait Live at Frontier City here in Oklahoma during a Youth Evangalism
      Conference (YEC). I havent heard any of his new stuff before that, and I just
      fell in love with this song and Numb. He rounded up a good bad. The guitarist
      is about the only member under average, I think. During their concert, Michael
      (Tait) introduced the band, and everybody had a wicked awesome solo (Drums, Bass).
      The guitarist was the only one who didnt solo, he just played a bunch of 
      measely power chords (easy,easy,easy). Whatever though. Rate this as soon as
      you play it, I need to know my transcripting status. Well... ...ENJOY!!!

                                                               -Asa

Comments about this tab

No comments/corrections found. Add your own

Complimentary Christian Ringtones
Dadamobile and CGR have teamed up to bring your favorite Christian artists right to your phone. Sign up today and get 10 complementary ringtones!
Tab Country
Did you know CGR has a sister site w/ country guitar tabs? Well we do! Its called Tab Country. It has a great archive with a lot of country tabs.
Rockin Tabs
Are you looking for a site that has rock guitar tabs? Then Rockintabs.com is the place for you. It is a budding site with many rock guitar tabs. Submit your tab today.
Tab Gallery
Tab Gallery has a compilation of christian, rock, and country tabs all in one place. Come visit us.