Guitar Tabs
song title    band name

Join Us Today!

Don't strum alone...
be a part of the largest online Christian music community. Browse thousands of guitar tabs and chat w/ musicians like yourself.


It's Free!

This tab has been rated a 4.00 out of 5 for accuracy. (2 votes)Sorry, but you must be logged in to rate this tab.
Click here to log-in, or you can click here to register.
(Registration is free)

All songs owned by corresponding publishing company. If you make copies of any song on this website, be sure to report your usage to CCLI.
Submitted by: !Justinsane!

Song: California
Artist: Hawk Nelson
Album: Letters to the President
Written by: Hawk Nelson

(guitar 1)
d--4~----------9------------4~
a--4~----------9------------4~
d--4~----------9------------4~

(guitar 2)
d----86----898---86----89868--
a--99--9-99--------9--------9~
d--------------99----99-------

(guitar 1 only)(verse)
g-----------------6------------
d--4-----9---6---4-4---9---10--
a--4----9---6---4-----9---10---(2x)
d--4---9---6---4-----9---10----

(both guitars)(pm...)
d--4--9-6-4--9-10-
a--4--9-6-4--9-10-(2x)
d--4--9-6-4--9-10-

(both guitars)(prechorus)
d--4~--4-
a--4~--4-
d--4~--4-
      |pm....

(guitar 1&2)
g----4-6-8--4-6-
d--4-4-6-8--4-6-
a--4-2-4-6--2-4-
d--4------------

(then, after the chorus...play the intro)

(for the solo, guitar 1 pays the same thing that boths guitars play in the pm
part in the verse but dont palm mute this part)
 (guitar 2 solo)

b------------------------7777-----------------------------------------
g--6666---------666----------66---------------------------------------(join in
d------88-66898----89886-------6689-68-68-68--686--686-------4--9--10-w/ the 
a------------------------------------------------9----9------4--9--10-chorus)
d---------------------------------------------------------144--9--10-

there it is...the  rest is ez to play rock it!

oh and in the chorus...on guitar can play,
b--4--          ----
g--3--          -8--
d--1--instead of-8--...both sound good
a--1--          -6--
d--1--          ----

RockIt!
jstel

Comments about this tab

Simonpo - 2006-12-04

dude almost perfect tab except ur tab is half a step down in the wrong key
all the notes should be 1 fret up


Add a comment/correction

Complimentary Christian Ringtones
Dadamobile and CGR have teamed up to bring your favorite Christian artists right to your phone. Sign up today and get 10 complementary ringtones!
Tab Country
Did you know CGR has a sister site w/ country guitar tabs? Well we do! Its called Tab Country. It has a great archive with a lot of country tabs.
Rockin Tabs
Are you looking for a site that has rock guitar tabs? Then Rockintabs.com is the place for you. It is a budding site with many rock guitar tabs. Submit your tab today.
Tab Gallery
Tab Gallery has a compilation of christian, rock, and country tabs all in one place. Come visit us.