Guitar Tabs
song title    band name

Join Us Today!

Don't strum alone...
be a part of the largest online Christian music community. Browse thousands of guitar tabs and chat w/ musicians like yourself.


It's Free!

This tab has been rated a 3.67 out of 5 for accuracy. (3 votes)Sorry, but you must be logged in to rate this tab.
Click here to log-in, or you can click here to register.
(Registration is free)

All songs owned by corresponding publishing company. If you make copies of any song on this website, be sure to report your usage to CCLI.
Submitted by: Zack Issac Like

Tim Hughs wrote a sweet song with this one.  A friend toght this to me so I made a tab for it. 
This is a Easy song to learn and it is not on this site so I made a tab for it. This is the 
picking part of the song and it is realy cool I didnít see this picking part on this site so have fun. Enjoy.
Zack 


E------2-2-3-0-0-2-3-3-2-0---2-2-3-0-0-2---2-2-3-0-2-3-2-3---2-2-3-0-0-2--+
B--------------------------3-------------3-----------------3-------------3+           
G-------------------------------------------------------------------------+
D-------------------------------------------------------------------------+
A-------------------------------------------------------------------------+
E-------------------------------------------------------------------------+




E------3-3-2-2-0-2-2------3-3-2-2-0-0-0-----3-3-2-2-0-2-2-3-2--------------+
B-------------------------------------------------------------3------------+
G--------------------------------------------------------------------------+
D--------------------------------------------------------------------------+
A--------------------------------------------------------------------------+
E--------------------------------------------------------------------------+





E-------2-2-3-0-2-3-2-3----2-2-3-3-2---------------------------------------+
B-----------------------3------------3-------------------------------------+
G--------------------------------------------------------------------------+
D--------------------------------------------------------------------------+
A--------------------------------------------------------------------------+
E--------------------------------------------------------------------------+
                                                                            

END




Written by Tim Hughs reserved by (2006)
(All rights reserved)

Comments about this tab

strahan9206 - 2006-08-19

Hey i played it and i sounded really good but i did fine another way to play it and i think the chours but it might be wrong

E----2-2-3-0-0-2-3-3-2-0---2-2-3-0-0-2-3-3-2-0---2-2-3-0-0-2--+
B------------------------3---------------------3-------------3-+
G-------------------------------------------------------------+
D-------------------------------------------------------------+
A-------------------------------------------------------------+
E-------------------------------------------------------------+

Chours

E----3-3-2-0-2-2-3-2-1-0-2-2----3-2-1-0-2-2-2-3---+
B-----------------------------------------------3-+
G-------------------------------------------------+
D-------------------------------------------------+
A-------------------------------------------------+
E-------------------------------------------------+


Zack Issac Like - 2006-09-03

I have doen a little editing on my tab and actually the verse goes like this:
/
,
E----2-2-3-0-0-2-3-3-2-0---2-2-3-0-0-2---2-2-3-0-2-3-2-0---2-2-3-0-0-2--+
B------------------------3-------------3-----------------3------------3-+
G-----------------------------------------------------------------------+
D-----------------------------------------------------------------------+
A-----------------------------------------------------------------------+
E-----------------------------------------------------------------------+


Add a comment/correction

Complimentary Christian Ringtones
Dadamobile and CGR have teamed up to bring your favorite Christian artists right to your phone. Sign up today and get 10 complementary ringtones!
Tab Country
Did you know CGR has a sister site w/ country guitar tabs? Well we do! Its called Tab Country. It has a great archive with a lot of country tabs.
Rockin Tabs
Are you looking for a site that has rock guitar tabs? Then Rockintabs.com is the place for you. It is a budding site with many rock guitar tabs. Submit your tab today.
Tab Gallery
Tab Gallery has a compilation of christian, rock, and country tabs all in one place. Come visit us.