Guitar Tabs
song title    band name

Join Us Today!

Don't strum alone...
be a part of the largest online Christian music community. Browse thousands of guitar tabs and chat w/ musicians like yourself.


It's Free!

This tab has been rated a 4.00 out of 5 for accuracy. (1 vote)Sorry, but you must be logged in to rate this tab.
Click here to log-in, or you can click here to register.
(Registration is free)

All songs owned by corresponding publishing company. If you make copies of any song on this website, be sure to report your usage to CCLI.
Submitted by: j35u5fr34k

Hey Guys. This is the correct way of playing this. Im very sure of it. If you
think this is wrong comment, but Im 95% sure this is correct. Well Have fun
with it!!!!

   
G--------------------------------:
D------88888888----000-000-------:  X4     Play on 8th fret for however needed
A------88888888----000-000-------:
D------88888888----000-000-------:

G--------------------------------:
D-----00xx00---------------------:  X4
A-----00xx00---------------------:
D-----00xx00---------------------:

........................................
                                       : 
G-----10-9-14--------------------:     :
D-----xx-x-xx--------------------:  X3 :   
A------8-7-12--------------------:     : 
D--------------------------------:     : 
                                       : >
G-----10-12-9--------------------:     : > X2
D-----xx-xx-x--------------------:     : >
A------8-10-7--------------------:     : 
D--------------------------------:     :
                                       :
.......................................:
 
Im gonna call this B4 so that I dont have to tab it again.

G-------14-14-14-14-14-14-14-14-14---:
D--0000-xx-xx-xx-xx-xx-xx-xx-xx-xx---:  X2
A--0000-12-12-12-12-12-12-12-12-12---:
D--0000------------------------------:

G--------------------------------:
D------0-0-0---------------------:
A------0-0-0---------------------:
D------0-0-0---------------------:

.........
B4 X2   :
        :
........:

                                  
G--14-14-14-14-14-14-14-14----:     
D--xx-xx-xx-xx-xx-xx-xx-xx----: X3   
A--12-12-12-12-12-12-12-12----:       
D-----------------------------:     
                                    
G--14-14-12-12-12-12-12-12----:     
D--xx-xx-xx-xx-xx-xx-xx-xx----:     
A--12-12-10-10-10-10-10-10----:     
D-----------------------------:     
                                   
G---14-14-14-14-14-14-14-14---15-15-15-15-15-15--19-19-19-19-17-17-17-17--:
D---xx-xx-xx-xx-xx-xx-xx-xx---xx-xx-xx-xx-xx-xx--xx-xx-xx-xx-xx-xx-xx-xx--:
A---12-12-12-12-12-12-12-12---13-13-13-13-13-13--17-17-17-17-15-15-15-15--:
D-------------------------------------------------------------------------:

G---7/10---:
D---x/xx---:  X8
A---5/-8---:
D----------:

........................................
                                       :
G-----------:                          :
D---xx00----: X2                       :
A---xx00----:                          :
D---xx00----:                          : 
                                       :>
G---13-13-13-13-13-13-13---:           :> X5, sorry if I counted wrong!!!!
D---xx-xx-xx-xx-xx-xx-xx---:           :>
A---11-11-11-11-11-11-11---:           :
D--------------------------:           :
                                       :
G--------------------------:           :
D---555-888----------------:           :
A---555-888----------------:           :
D---555-888----------------:           :
                                       :
.......................................:

On last time, let the open chord ring:G-----------------------------:
                                      D-----555-888-0>>>>>>>>>>>----:
                                      A-----555-888-0>>>>>>>>>>>----:
                                      D-----555-888-0>>>>>>>>>>>----:


Well thats it!!!! Its really easy, so you can learn all of it in one night,
like in an hour. I learned this whole in an hour by ear so you should be able 
to learn it in less than that, I hope. Well I hope I helped!!! Bye Guys!!!!

Comments about this tab

Ooblar - 2007-05-02

The Intro for this is wrong, its:
E[--------------------------------]
B[--------------------------------]
G[--------------------------------]x3
D[-9999999999xx0x0-9999999999xx0x-]
A[-9999999999xx0x0-9999999999xx0x-]
D[-9999999999xx0x0-9999999999xx0x-]

Ive got my version in the making ive also got When The Sun Sleeps comming
i give this tab a 4


geovanni - 2007-09-19

no, ooblar. the dude has it right. it's done one the eights not on the nine.


Add a comment/correction

Complimentary Christian Ringtones
Dadamobile and CGR have teamed up to bring your favorite Christian artists right to your phone. Sign up today and get 10 complementary ringtones!
Tab Country
Did you know CGR has a sister site w/ country guitar tabs? Well we do! Its called Tab Country. It has a great archive with a lot of country tabs.
Rockin Tabs
Are you looking for a site that has rock guitar tabs? Then Rockintabs.com is the place for you. It is a budding site with many rock guitar tabs. Submit your tab today.
Tab Gallery
Tab Gallery has a compilation of christian, rock, and country tabs all in one place. Come visit us.