Guitar Tabs
song title    band name

Join Us Today!

Don't strum alone...
be a part of the largest online Christian music community. Browse thousands of guitar tabs and chat w/ musicians like yourself.


It's Free!

This tab has been rated a 5.00 out of 5 for accuracy. (1 vote)Sorry, but you must be logged in to rate this tab.
Click here to log-in, or you can click here to register.
(Registration is free)

All songs owned by corresponding publishing company. If you make copies of any song on this website, be sure to report your usage to CCLI.
Submitted by: tl_guitarnut

Artist: Anberlin
Song: The Runaways
cd: Never Take Friendship Personal
Copyright ‚ Tooth and Nail Records
Tuning: Drop D (DADGBe)

h=hammer on
P.M..= Palm Mute
x=mute or deaden the string


Intro: 
e | ------------------------------------------------------------------|
B | ------------------------------------------------------------------|
G | --------16-16-16-16---------16-16-16-16-16--------16-16-----------|
D | -14-14--x--x--x--x----14-14-x--x--x--x--x--14-14--x--x------------| 4x
A | -14-14-14-14-14-14-14-14-14-14-14-14-14-14-14-14--14-14-----------|
D | -14-14----------------14-14----------------14-14------------------|
P.M .............................................................


Then:
e | ------------------------------------|
B | ------------------------------------|
G | ------------------------------------|
D | -9-9-7-7-4-5-5-5-0-2-2-2------------| 3x
A | -9-9-7-7-4-5-5-5-0-2-2-2------------|
D | -9-9-7-7-4-5-5-5-0-2-2-2------------|


Then:
e | --------------------------|
B | --------------------------|
G | --------------------------|
D | -4-4-4-5-5-5--------------|
A | -4-4-4-5-5-5--------------|
D | -4-4-4-5-5-5--------------|


Verse 1:
e | ----------------------------------------------------------------|
B | ----------------------------------------------------------------|
G | -4-4-7-6h7-6-4--4-4-7-6h7-6-4-------7-6h7-6-4--------7-6h7-6-4--| 2x
D | -----------------------------4-4---------------5-5--------------|
P.M.....           ....         ....              ....        



Pre-Chorus Lead Guitar with more distortion:
e | ---------------------------------------------------------------|
B | ---------------------------------------------------------------|
G | -4-4-7-6h7-6-4--4-4-7-6h7-6-4------7-6h7-6-4-----7-6h7-6-4-----|
D | -----------------------------4-4--------------55---------------|
P.M.....           ....         ....             ...


Then Lead:
e | ---------------------------------------------------------------|
B | ---------------------------------------------------------------|
G | -4-4-7-6h7-6-4-4-7-6h7-6-4------7-6h7-6-4----------------------|
D | ----------------------------44----------------5-5-5-5-5-5-5----|
P.M.....         ...           ...                       

Chorus:
e | --------------------------------------|
B | --------------------------------------|
G | --------------------------------------|
D | -9-9-9-9-7-7-7-7-4-5-5-0-2-2----------|
A | -9-9-9-9-7-7-7-7-4-5-5-0-2-2----------|
D | -9-9-9-9-7-7-7-7-4-5-5-0-2-2----------|


Then:
e | -----------------------------------------------------------|
B | -----------------------------------------------------------|
G | -----------------------------------------------------------|
D | -9-9-9-9-7-7-7-7-4-5-5-0-2-2-0-2-2--4-5-5-0-2-2-0-2-2------|
A | -9-9-9-9-7-7-7-7-4-5-5-0-2-2-0-2-2--4-5-5-0-2-2-0-2-2------|
D | -9-9-9-9-7-7-7-7-4-5-5-0-2-2-0-2-2--4-5-5-0-2-2-0-2-2------|


Post-Chorus
e | -----------------------------|
B | -----------------------------|
G | -4-4-7-6h7-6-4-4-7-6h7-6-4---|
D | -----------------------------|
PM  ....         ...                      

Post-Chorus

G | -11-11-9-9-7-7-4-4-----|
D | -x---x-x-x-x-x-x-x-----|
A | -9---9-7-7-5-5-2-2-----|


Verse 2: Same As Verse 1


Pre-Chorus


Chorus


Bridge
G | -16-16-16--16-16-16--16--16-------------------------------|
D | --x---x---x---x---x---x---x-------------------------------|
A | -14-14-14--14-14-14--14--14-------------------------------|
P.M........................................


Then:
e | ----------------------------------------------|
B | ----------------------------------------------|
G | ----------------------------------------------|
D | -5-5-5-5-0-0-0-0-9-9-9-9-7-7-7-7--------------| 2x
A | -5-5-5-5-0-0-0-0-9-9-9-9-7-7-7-7--------------|
D | -5-5-5-5-0-0-0-0-9-9-9-9-7-7-7-7--------------|


Then:
e | ---------------------------------------------|
B | ---------------------------------------------|
G | ---------------------------------------------|
D | -9-9-9-7-7-7-4-5-5-5-0-2-2-2-----------------| 3x
A | -9-9-9-7-7-7-4-5-5-5-0-2-2-2-----------------|
D | -9-9-9-7-7-7-4-5-5-5-0-2-2-2-----------------|

Then:
D | -4-4-4-5-5-5----------------|
A | -4-4-4-5-5-5----------------|
D | -4-4-4-5-5-5----------------|


Then:
e | -----------------------------|
B | -----------------------------|
G | -16--------------------------|
D | --x-a lot--------------------|
A | -14--------------------------|
D | -----------------------------|
P.M ............................

Guitar 2:
G | -11-11-9-9-7-7-4-4--------------|
D | -x--x--x-x-x-x-x-x--------------| 2x
A | -9--9--7-7-5-5-2-2--------------|


Chorus 4x: they use Palm muting in one part, but you can figure that out.



Thatís all, I hope you enjoy it and can learn something from it.


God Bless,
tl_guitarnut

Comments about this tab

tl_guitarnut - 2006-06-15

sorry, that weird symbol should be a copyright symbol


tl_guitarnut - 2006-06-30

Oh yeah that 14 that looks like this

D | ----|
A | -14-|
D |-----|

Should actually be
G | -16-|
D | -x--|
A | -14-|
D | ----|


Add a comment/correction

Complimentary Christian Ringtones
Dadamobile and CGR have teamed up to bring your favorite Christian artists right to your phone. Sign up today and get 10 complementary ringtones!
Tab Country
Did you know CGR has a sister site w/ country guitar tabs? Well we do! Its called Tab Country. It has a great archive with a lot of country tabs.
Rockin Tabs
Are you looking for a site that has rock guitar tabs? Then Rockintabs.com is the place for you. It is a budding site with many rock guitar tabs. Submit your tab today.
Tab Gallery
Tab Gallery has a compilation of christian, rock, and country tabs all in one place. Come visit us.