Guitar Tabs
song title    band name

Join Us Today!

Don't strum alone...
be a part of the largest online Christian music community. Browse thousands of guitar tabs and chat w/ musicians like yourself.


It's Free!

This tab has been rated a 5.00 out of 5 for accuracy. (1 vote)Sorry, but you must be logged in to rate this tab.
Click here to log-in, or you can click here to register.
(Registration is free)

All songs owned by corresponding publishing company. If you make copies of any song on this website, be sure to report your usage to CCLI.
Submitted by: bigntalboy13

Song Name: Ruled Out
Artist: Slick Shoes
Album: The Biggest and the Best

Normal tuning (EADGBe)

Intro    (two overlapping guitars)
Guitar 1
e|---------------------------------------------------------------------------|
B|---------------------------------------------------------------------------|
G|-6-----------9-----------6-----------4-----1-2-4-6-----------9-------------|
D|-7-----------7-----------7-----------6-----2-4-6-7-----------7-------------|
A|---------------------------------------------------------------------------|
E|---------------------------------------------------------------------------|

Guitar 2
e|---------------------------------------------------------------------------|
B|--------------------------------------------------------------------10-9---|
A|---6-6-7-6-----9-9-7-7-7---6-6-7-6-----4-4---------6-6-7-6-----9-9-------9-|
D|-----------7-----------------------7-----------------------7---------------|
A|---------------------------------------------------------------------------|
E|---------------------------------------------------------------------------|

Guitar 1
e|---------------|
B|---------------|
G|-6-----9-7-6-4-|
D|-7-----7-7-7-6-|
A|---------------|
E|---------------|

Guitar 2
e|---------------|
B|---------------|
G|---6-6---------|
D|---------------|
A|---------------|
E|---------------|
 
i'm only doing 1 guitar for the rest of the song

Verse 1
e|-----------------------------------------------------------|
B|-----------------------------------------------------------|
G|-----------------------------------------------------------|
D|-7777777-6666666-4444444-2222222-7777777-6666666-4444444-2-|
A|-7777777-6666666-4444444-2222222-7777777-6666666-4444444-2-|strumming weird
E|-5555555-4444444-2222222-0000000-5555555-4444444-2222222-0-|
   ....... ....... ....... ....... ....... ....... .......

e|-------------------------------------------------------------------------|
B|-------------------------------------------------------------------------|
G|-------7-6---------7-6---------7-6---------99999-9-8-7-77777-7-8-9-99999-|
D|-77777-7-6-7-44444-7-6-7-99999-7-6-7-44444-99999-9-8-7-77777-7-8-9-99999-|
A|-77777-5-4-7-44444-5-4-7-99999-5-4-7-44444-77777-7-6-5-55555-5-6-7-77777-|
E|-55555-----5-22222-----5-77777-----5-22222-------------------------------|

e|-----------------------------------------------------------------------|
B|-----------------------------------------------------------------------|
G|-9-8-------------------------------------------------------------------|
D|-9-8-7-7-7777-7---6666-7---4444-4---2222222-7777-7---6666-7---4444-4---|
A|-7-6-7-7-7777--7--6666--7--4444--4--2222222-7777--7--6666--7--4444--4--|
E|-----5-5-5555---5-4444---5-2222---2-0000000-5555---5-4444---5-2222---2-|
           ....     ....     ....     ....... ....     ....     ....

e|--------------------------------------------------------|
B|--------------------------------------------------------|
G|----------7-7-7-7-7-7-7-7-7-7-7-7-----------------------|
D|-2222222--7-7-7-7-7-7-7-7-7-7-7-7-7-7-7-7-7-7-7-7-7-7-7-|
A|-2222222--5-5-5-5-5-5-5-5-5-5-5-5-7-7-7-7-7-7-7-7-7-7-7-|     wow that
E|-0000000--------------------------5-5-5-5-5-5-5-5-5-5-5-|  verse was long
   .......    . . . . . . . . . . .   . . . . . . . . . . 

Chorus
e|-------------------------------------------------------------------------|
B|-------------------------------------------------------------------------|
G|-------7-6---------7-6---------7-6---------99999-9-8-7-77777-7-8-9-99999-|
D|-77777-7-6-7-44444-7-6-7-99999-7-6-7-44444-99999-9-8-7-77777-7-8-9-99999-|
A|-77777-5-4-7-44444-5-4-7-99999-5-4-7-44444-77777-7-6-5-55555-5-6-7-77777-|
E|-55555-----5-22222-----5-77777-----5-22222-------------------------------|

e|---------------|
B|---------------|
G|-9-8-----------|
D|-9-8-7-7777777-|
A|-7-6-7-7777777-|
E|-----5-5555555-|

Verse 2   (I am not so sure about what is between the muted power chords)
e|-------------------------------------------------------------------------|
B|-------------------------------------------------------------------------|
G|-------------------------------------------------------------------------|
D|-7777-777-6666-777-4444-777-22222222-7777-777-6666-777-4444-777-22222222-|
A|-7777-777-6666-777-4444-777-22222222-7777-777-6666-777-4444-777-22222222-|
E|-5555-----4444-----2222-----00000000-5555-----4444-----2222-----00000000-|
   ....     ....     ....     ........ ....     ....     ....     ........ 

e|-------------------------------------------------|
B|-------------------------------------------------|
G|-7-7-7-7-7-7-7-7-7-7-7-7-------------------------|
D|-7-7-7-7-7-7-7-7-7-7-7-7-7-7-7-7-7-7-7-7-7-7-7-7-|
A|-5-5-5-5-5-5-5-5-5-5-5-5-5-7-7-7-7-7-7-7-7-7-7-7-|          wow that
E|-------------------------5-5-5-5-5-5-5-5-5-5-5-5-|      verse was short
     . . . . . . . . . . .   . . . . . . . . . . .

Chorus
e|-------------------------------------------------------------------------|
B|-------------------------------------------------------------------------|
G|-------7-6---------7-6---------7-6---------99999-9-8-7-77777-7-8-9-99999-|
D|-77777-7-6-7-44444-7-6-7-99999-7-6-7-44444-99999-9-8-7-77777-7-8-9-99999-|
A|-77777-5-4-7-44444-5-4-7-99999-5-4-7-44444-77777-7-6-5-55555-5-6-7-77777-|
E|-55555-----5-22222-----5-77777-----5-22222-------------------------------|

e|---------------|
B|---------------|
G|-9-8-----------|
D|-9-8-7-7777777-|
A|-7-6-7-7777777-|
E|-----5-5555555-|

There is so much stuff going on when he is doing his “moaning” thing and I
can’t figure any thing out, sry

Outro   (two guitars do the first half of the outro but I tabbed one)
e|--------------------------------------------|
B|--------------------------------------------|
G|--------------------------------------------|
D|-7----6----4----4----7----6----4----4----7~-|
A|-7----6----4----4----7----6----4----4----7~-|
E|-5----4----2----2----5----4----2----2----5~-|


.....  =  palm mute
  ~    =  let ring out


i tabbed this song because there was no complete tab of this song, just an
intro tab.

hope you enjoyed my tab, remember it is only me second tab ever so feel free 
to correct.    thanks

Comments about this tab

bigntalboy13 - 2006-06-24

ok so i fiigured out one of the guitars during the "moaning" part. just go like this again---

e|-------------------------------------------------------------------------|
B|-------------------------------------------------------------------------|
G|-------------------------------------------------------------------------|
D|-7777-777-6666-777-4444-777-22222222-7777-777-6666-777-4444-777-22222222-|
A|-7777-777-6666-777-4444-777-22222222-7777-777-6666-777-4444-777-22222222-|
E|-5555-----4444-----2222-----00000000-5555-----4444-----2222-----00000000-|
.... .... .... ........ .... .... .... ........

and again i am not sure about what they are doing between the muted power chords. but ur welcome any way :)


bigntalboy13 - 2006-06-24

um ok so that last comment didn't work to well, lets try this

e|------------------------------------------------------------------------
B|------------------------------------------------------------------------
G|------------------------------------------------------------------------
D|-7777-777-6666-777-4444-777-22222222-7777-777-6666-777-4444-777-22222222
A|-7777-777-6666-777-4444-777-22222222-7777-777-6666-777-4444-777-22222222
E|-5555-----4444-----2222-----00000000-5555-----4444-----2222-----00000000
.... .... .... ........ .... .... .... ........


bigntalboy13 - 2006-06-24

haha well the muting dots are wrong but o well you can jsut look at the begining of verse 2


Add a comment/correction

Complimentary Christian Ringtones
Dadamobile and CGR have teamed up to bring your favorite Christian artists right to your phone. Sign up today and get 10 complementary ringtones!
Tab Country
Did you know CGR has a sister site w/ country guitar tabs? Well we do! Its called Tab Country. It has a great archive with a lot of country tabs.
Rockin Tabs
Are you looking for a site that has rock guitar tabs? Then Rockintabs.com is the place for you. It is a budding site with many rock guitar tabs. Submit your tab today.
Tab Gallery
Tab Gallery has a compilation of christian, rock, and country tabs all in one place. Come visit us.