Guitar Tabs
song title    band name

Join Us Today!

Don't strum alone...
be a part of the largest online Christian music community. Browse thousands of guitar tabs and chat w/ musicians like yourself.


It's Free!

This tab has been rated a 4.20 out of 5 for accuracy. (5 votes)Sorry, but you must be logged in to rate this tab.
Click here to log-in, or you can click here to register.
(Registration is free)

All songs owned by corresponding publishing company. If you make copies of any song on this website, be sure to report your usage to CCLI.
Submitted by: tl_guitarnut

Title: Go
Artist: Thousand Foot Krutch
cd: The Art of Breaking
Tuning: Drop D (DADGBe)

r=let it ring
b=bend
rb=return bend
s=slide
__=marks spot where lead plays


Intro Rhythm Guitar:
e | ----------------------------------------------|
B | ----------------------------------------------|
G | ----------------------------------------------|
D | -7s9-9-11-7-12-0-0-12-12h14-------------------| 4x
A | -7s9-9-11-7-12-0-0-12-12h14-------------------|
D | -7s9-9-11-7-12-0-0-12-12h14-------------------|


Lead does this on the second and forth times
G | ---------------------------|
D | -7h6-7h6-7s9---------------|


Then before verse 1 Rhythm plays this
D |-9---|
A |-9---|
D |-9---|

Verse 1 starts out with bass


Then Rhythm comes in:
e | --------------------------------------------------|
B | --------------------------------------------------|
G | --------------------------------------------------|
D | -9------------------------------------------------| 3x
A | -9------------------------------------------------|
D | -9--9-9-9h7-7-12-12-12-12-12s14-------------------|
        _____________________________
              Lead Plays this


Then Rhythm Guitar:
e | ---------------------------------------|
B | ---------------------------------------|
G | ---------------------------------------|
D | -9-9-9-9-7-7-12-12-12-12-12s14---------|
A | -9-9-9-9-7-7-12-12-12-12-12s14---------|
D | -9-9-9-9-7-7-12-12-12-12-12s14---------|


Pre-chorus Rhythm Guitar:
e | ---------------------------------|
B | ---------------------------------|
G | ---------------------------------|
D | -5-5-5-5-7-7-7-7-----------------|
A | -5-5-5-5-7-7-7-7-----------------|
D | -5-5-5-5-7-7-7-7-----------------|


Chorus Rhythm Guitar:
e | ----------------------------------------------------|
B | ----------------------------------------------------|
G | ----------------------------------------------------|
D | -9-9-9-9-12-12-12-12-7-7-7-7-14-14-14---------------| 4x
A | -9-9-9-9-12-12-12-12-7-7-7-7-14-14-14---------------|
D | -9-9-9-9-12-12-12-12-7-7-7-7-14-14-14---------------|


Chorus Lead Guitar Wah effect:
e | -17--17---15---15-----14---14-----15---15-----------------------------|
B | ---15---15---15--15------15----15----15--15---------------------------| 4x
G | ----------------------------------------------------------------------|
D | ----------------------------------------------------------------------|


Then Intro 2x


Then after second time on intro, Lead plays this
e | -------|
B | -------|
G | -------|
D | -9-----|
A | -9-----|
D | -9-----|


Then Rhythm Plays:
e | ------------------------------------|
B | ------------------------------------|
G | ------------------------------------|
D | ------------------------------------| 4x
A  | -----------------------------------|
D | -9-9-9-7-7-7-0-0-0-0-5-5-5----------|


Then Lead plays this:
e | ---------------|
B | ---------------|
G | ---------------|
D | -9-------------|
A | -9-------------|
D | -9-------------|


Then Lead and Rhythm:
e | ------------------------------------|
B | ------------------------------------|
G | ------------------------------------|
D | -9-9-9-7-7-7-0-0-0-5-5-5------------|
A | -9-9-9-7-7-7-0-0-0-5-5-5------------|
D | -9-9-9-7-7-7-0-0-0-5-5-5------------|


Pre-Chorus


Chorus


Bridge Rhythm Guitar in the background:
e | -----------------------------------------------------|
B | -----------------------------------------------------|
G | -----------------------------------------------------|
D | -----------------------------------------------------| 8x
A | -----------------------------------------------------|
D | -9-9-9-9-9-12-12-12-12-12-7-7-7-7-7-5-5-5-5-5--------|


Then Lead comes in on the second time
G | ---------------------------------------------------|
D | ---------------------------------------------------|
A | -2r--------5r--------4r--------2r------------------|


Then Rhythm plays:
e | -------------------------------------|
B | -------------------------------------|
G | -------------------------------------|
D | -9-9-9-9-12-12-12-12-7-7-7-7-5-------| Stop 
A | -9-9-9-9-12-12-12-12-7-7-7-7-5-------|
D | -9-9-9-9-12-12-12-12-7-7-7-7-5-------|


Lead Plays:
D | -----------------------------------------|
A | -su9r---------12r-----------14r----------| Stop


Solo Lead Guitar:
e | -17brb-----17brb--5h7-7-10-5h7-10--14-14-14-----14----14-14----14brb-12---|
B | --------15-----------------------------------12----12-------12------------|
G | --------------------------------------------------------------------------|


Behind that Rhythm plays:
e | ---------------------------------------------------|
B | ---------------------------------------------------|
G | ---------------------------------------------------|
D | -9-9-9-9-12-12-12-12-7-7-7-7-14-14-14-14-----------| 2x
A | -9-9-9-9-12-12-12-12-7-7-7-7-14-14-14-14-----------|
D | -9-9-9-9-12-12-12-12-7-7-7-7-14-14-14-14-----------|


Chorus 8x


Ending:
e | ----------------------------|
B | ----------------------------|
G | ----------------------------|
D | -7-9-9-9-11-7---------------|
A | -7-9-9-9-11-7---------------|
D | -7-9-9-9-11-7---------------|




Thatís about it, I might need a little help on the lead riff for the chorus, I 
think I have a start. Enjoy!


God Bless,
tl_guitarnut

Comments about this tab

tl_guitarnut - 2006-06-10

There it is, I would like it if you could comment on this, I want to know how to make my tabs better


Dani_Boy - 2006-06-11

This tab is good, WAY better then the first tab of "Go" on this site. It's far from perfect though. This tab gives you a good idea and it's the best so far. I still think I'll have to give it a 3. Even though it deserves a bit better than 3, it does not really reach a 4. Good job!

Here's the chorus for the Rhythm Guitar:

G|--------444444------------------------------------|
D|--222222444444000000777777222222555555000000777777|
A|--222222222222000000777777222222555555000000777777|x2
D|--222222------000000777777222222555555000000777777|


tl_guitarnut - 2006-06-11

Thanks for the corrections!


Dani_Boy - 2006-06-13

You're welcome :)


Te eF Kay - 2006-08-09

Great job attempting the solo!!!ill check it out.


Te eF Kay - 2006-08-09

the rythym isnt right but I could figure it out myself but overall its a great tab!!!+ the solo is about 95% correct maybe more!
Im gonna try tab this now!
you dont mind seeing some of your stuff in it do you?


tl_guitarnut - 2006-08-12

not at all, go ahead


Te eF Kay - 2006-08-12

thanx!
its just that some people get worked up about seeing some of their stuff in someone elses tab.(not that I thought youd get grouchy about it!hehe)


ice_wiz - 2006-08-16

Wow, good job on the solo! I tryed the rest yet, but the solo sounds great! You're really good tabber.


ice_wiz - 2006-08-16

*Haven't


tl_guitarnut - 2006-08-16

thanks


Te eF Kay - 2006-08-16

hey can someone please check out my version of everyone like me?PLEASE!?!


tl_guitarnut - 2006-08-17

I will


Te eF Kay - 2006-08-17

sweet!thanx!


Te eF Kay - 2006-09-05

I just need to figure out the last chorus now and make sure of the first choruses!


Te eF Kay - 2006-09-05

I mean the lead!


tl_guitarnut - 2006-09-08

sweet, keep at it!


Te eF Kay - 2006-09-08

in the first verse the rythm does something like this:
D|-0h222p0-|


tl_guitarnut - 2006-09-09

i'll try it


Te eF Kay - 2006-09-10

I think u got the chorus lead quite right.
any idea on what chord he plays in the verse?


Te eF Kay - 2006-09-13

could u please check out my version of set it off?


tl_guitarnut - 2006-09-15

sure


Te eF Kay - 2006-12-13

the lead guitar is really hard to hear in the chorus but I think it plays the part you tabbed the first and third part of the chorus.


tl_guitarnut - 2006-12-17

perhaps it does


Te eF Kay - 2006-12-25

sorry this is taking so long(tabbing my version)but I want my version as good as I can get it!
all I have to tab is the lead guitar chorus


tl_guitarnut - 2007-01-06

Sweet, I look forward to playing it!


Te eF Kay - 2007-01-08

it will come sooner if any one has ideas for the lead:-)!!!
Thanx for the incouragment:)


tl_guitarnut - 2007-01-10

Anytime man!


Te eF Kay - 2007-01-12

sweet;)
I submited an "All The Way Live" Tab yesterday if your interested by the way:)


Te eF Kay - 2007-01-25

Im off to Parachute 07 now!
I got pen and paper and if TFK plays "Go" ill b watching his hands and write it down afterwards!
see ya!!!


Te eF Kay - 2007-01-29

WOW!!!TFK RAWKED!!!
They didnt play "Go" or have a lead guitar but I had a great time!
Jamie didnt play guitar instead the guitarist from an NZ band "Rapture Ruckus"
played guitar!
They played:
The Art of Breaking
Rawkfist
Step to Me
Everyone Like Me
Breath You In
Stranger
This Is A Call
Faith Love and Happiness
Break The Silence
Phenomenom
Absolute
Hurt
and my personal favorite MOVE!


tl_guitarnut - 2007-01-31

Cngradulations on seeing TFK, there amazing in concert. How was the guitarist? Did you get any hints on playing any of their songs?


Te eF Kay - 2007-02-14

Yeah they were awesome!!!
And Jeff(The guitarist)did great!
I didnt get much from the guitar cause I wasnt watching much(to busy moshing;))
but for rawkfist in the solo it looked like he was sliding in some parts and for that shutter effect thing in the 2nd verse he did some wierd palm mute thing!
go to the TFK website and go onto photos to check out some photos of them playing here!


tl_guitarnut - 2007-02-20

Sweet I will. Im glad you had a good time.


Add a comment/correction

Complimentary Christian Ringtones
Dadamobile and CGR have teamed up to bring your favorite Christian artists right to your phone. Sign up today and get 10 complementary ringtones!
Tab Country
Did you know CGR has a sister site w/ country guitar tabs? Well we do! Its called Tab Country. It has a great archive with a lot of country tabs.
Rockin Tabs
Are you looking for a site that has rock guitar tabs? Then Rockintabs.com is the place for you. It is a budding site with many rock guitar tabs. Submit your tab today.
Tab Gallery
Tab Gallery has a compilation of christian, rock, and country tabs all in one place. Come visit us.