Guitar Tabs
song title    band name

Join Us Today!

Don't strum alone...
be a part of the largest online Christian music community. Browse thousands of guitar tabs and chat w/ musicians like yourself.


It's Free!

This tab has been rated a 3.50 out of 5 for accuracy. (2 votes)Sorry, but you must be logged in to rate this tab.
Click here to log-in, or you can click here to register.
(Registration is free)

All songs owned by corresponding publishing company. If you make copies of any song on this website, be sure to report your usage to CCLI.
Submitted by: tl_guitarnut

Song: Roots In Stereo
Artist: P.O.D
cd: Testify
Copyright „ Atlantic Records
Tuning: Drop D (DADGBe)


h=hammer on
s=slide
sd=slide down


Intro:
e | -----------------------------------|
B | -----------------------------------|
G | -----------------------------------|
D | -3---3-----0---0-------------------|
A | -3---3-----0---0-------------------|
D | -3---3-----0---0-------------------|


Verse 1:
e | ------------------------------------------------------------------------------|
B | ------------------------------------------------------------------------------|
G | ------------------------------------------------------------------------------|
D | -3---3---2h3-2h3---2h3-2h3-2h3-----0---0--------------------------------------|3x
A | -3---3-----------------------------0---0---1h3-1h3---1h3-1h3-1h3--------------|
D | -3---3-----------------------------0---0--------------------------------------|


Then:
D | -0---------------|
A | -0---------------|
D | -0---------------|


Chorus:
e | --------------------------------------|
B | --------------------------------------|
G | ---------10---------------------------|
D | -5---5---10--5---5--8---8-------------| 4x
A | -5---5---8---5---5--8---8-------------|
D | -5---5---8---5---5--8---8-------------|


Verse 2
e | -----------------------------------------------------------------------|
B | -----------------------------------------------------------------------|
G | -----------------------------------------------------------------------|
D | -3---3---2h3-2h3--2h3-2h3-2h3---0---0----------------------------------|
A | -3---3--------------------------0---0---1h3-1h3-1h3-1h3-1h3------------|
D | -3---3--------------------------0---0----------------------------------|


Then:
G | ----------------------------|
D | -3---3----------------------| Stop
A | -3---3---1h3-1h3------------|
D | -3---3----------------------|


Then
D | -0-------------------|
A | -0-------------------|stop
D | -0-------------------|


Then
e | ---------------------------------------------------------------------------------------|
B | ---------------------------------------------------------------------------------------|
G | ---------------------------------------------------------------------------------------|
D | -3---3---2h3-2h3---2h3-2h3-2h3--0---0--------------------------------------------------|
A | -3---3--------------------------0---0---1h3-1h3--1h3-1h3-1h3---------------------------|
D | -3---3--------------------------0---0--------------------------------------------------|


Then:
D | -0----|
A | -0----|
D | -0----|


Chorus 4x


Then:
e | -----------------------------------------|
B |  ----------------------------------------|
G | -7h8-8-8--7h8-8-8--7h8-8-8-8--7s3--------|
D | -----------------------------------------|


Bridge 1:
D | ---------------------------------------------------------------|
A | -5h6-6-6--5h6-6-6--5h6-6-6--5h6s8------------------------------|5x
D | ---------------------------------------------------------------|


Chorus 12x?


Then:
e | ------------------------------------------|
B | ------------------------------------------|3x
G | -5sd-----12sd-----8sd-----10sd------------|


End on
e | -----------------|
B | -5sd-------------|
G | -----------------|



Thatís about it. I think there may be a different part before the bridge , 
but I couldnít really hear it.  I want to get all my tabs as near perfect 
as I can, so , please tell me what I need to improve on.  One last thing,
 on the  2h3ís and 1h3ís I only put those a few times they play them more, 
so listen to the cd.


God Bless,
tl_guitarnut

Comments about this tab

Adam K - 2006-06-06

It's in drop C.


tl_guitarnut - 2006-06-06

my bad


tl_guitarnut - 2006-06-15

yarg, the computer keeps messing up the copyright symbol


guitarfreak994 - 2008-01-27

it says 7h8-8-8-8 but to me it sounds better 7h8-7-7-7-s3


Add a comment/correction

Complimentary Christian Ringtones
Dadamobile and CGR have teamed up to bring your favorite Christian artists right to your phone. Sign up today and get 10 complementary ringtones!
Tab Country
Did you know CGR has a sister site w/ country guitar tabs? Well we do! Its called Tab Country. It has a great archive with a lot of country tabs.
Rockin Tabs
Are you looking for a site that has rock guitar tabs? Then Rockintabs.com is the place for you. It is a budding site with many rock guitar tabs. Submit your tab today.
Tab Gallery
Tab Gallery has a compilation of christian, rock, and country tabs all in one place. Come visit us.