Guitar Tabs
song title    band name

Join Us Today!

Don't strum alone...
be a part of the largest online Christian music community. Browse thousands of guitar tabs and chat w/ musicians like yourself.


It's Free!

This tab has been rated a 4.50 out of 5 for accuracy. (2 votes)Sorry, but you must be logged in to rate this tab.
Click here to log-in, or you can click here to register.
(Registration is free)

All songs owned by corresponding publishing company. If you make copies of any song on this website, be sure to report your usage to CCLI.
Submitted by: zero91

song: scars that save (track #7)
band: kids in the way
album: safe from the losing fight
copyright 2003 flicker records

verse 1 
guitar 1
|------------------------------------------------------------------------|
|------------------------------------------------------------------------|
|-1111111111111111111111111111111111111111111111111111111111111111111111-|
|-1111111111111111111111111111111111111111111111111111111111111111111111-|
|-9-9-9-9-9-9-9-9-9-9-9-9-9-9-9-9-9-9-9-9-9-9-9-9-9-9-9-9-9-9-9-9-9-9-9--|
|------------------------------------------------------------------------|
p.m......................................................................
guitar 2
|------|
|------|
|------|
|-4434-|
|-4434-|x4
|-2212-|

 chorus 
both guitars
|----------------------------------------|
|----------------------------------------|
|-6656------6656------6656------6656-----|
|-6656-8886-6656-8886-6656-8886-6656-8-6-|
|-4434-8886-4434-8886-4434-8886-4434-8-6-|
|------6664------6664------6664------6-4-|
verse 2
guitar 2
verse 2 is the same exept guitar 2 starts out w/ this
|----------------------|
|----------------------|
|-11-1111-----11111011-|
|-11-1111-----11111011-|
|-9--9-9------9-9-8-9--|
|----------------------|

bridge
all guitars
|-----------------------------------------------------------------
|-----------------------------------------------------------------
|---------------------------------8-8-8-8-8-8-8-8-6-6-6-6-6-6-6-6-
|-3-3-3-3-3-3-3-3-4-4-4-4-4-4-4-4-8-8-8-8-8-8-8-8-6-6-6-6-6-6-6-6-
|-3-3-3-3-3-3-3-3-4-4-4-4-4-4-4-4-6-6-6-6-6-6-6-6-4-4-4-4-4-4-4-4-
|-1-1-1-1-1-1-1-1-2-2-2-2-2-2-2-2---------------------------------
p.m...............................................................

bridge cont.
|-----------------------------------------------------------------
|-----------------------------------------------------------------
|---------------------------------8-8-8-8-8-8-8-8-----------------
|-3-3-3-3-3-3-3-3-4-4-4-4-4-4-4-4-8-8-8-8-8-8-8-8-8-8-8-8-6-6-6-6-
|-3-3-3-3-3-3-3-3-4-4-4-4-4-4-4-4-6-6-6-6-6-6-6-6-8-8-8-8-6-6-6-6-
|-1-1-1-1-1-1-1-1-2-2-2-2-2-2-2-2-----------------6-6-6-6-4-4-4-4-
p.m..............................
play this twice only on second time dont p.m.

outro
guitar 1
|----------------------------------------------------------------------|
|----------------------------------------------------------------------|
|-11111111111111111111111111111111111111111111111111111111111111111111-|
|-11111111111111111111111111111111111111111111111111111111111111111111-|
|-9-9-9-9-9-9-9-9-9-9-9-9-9-9-9-9-9-9-9-9-9-9-9-9-9-9-9-9-9-9-9-9-9-9--|
|----------------------------------------------------------------------|
p.m....................................................................

outro
guitar 2
play this as it fades out. listen for exact timing.
|------------------------------------------------------|
|------------------------------------------------------|
|-11-1111-------11-1111-------11111011------11----1111-|
|-11-1111-------11-1111-------11111011------11----1111-|
|-9--9-9--------9--9-9--------9-9-8-9-------9-----9-9--|
|------------------------------------------------------|

well, i think thats it! enjoy!

Comments about this tab

zero91 - 2006-05-31

oh yeah, i forgot to say that in the bridge there is a lead guitar part that i dont know so thats why its not on here. other than that i think its mostly right. thanks for checkin it out!


akaukal - 2006-06-01

It looks good, but I'll have to try it, but I'll rate when i'm done. Looks very promising.


zero91 - 2006-06-10

please rate this tab! thanks


akaukal - 2006-06-10

Every thing seems good except the intro. I'll post it up in the comments box soon, but other than that it looks pretty good. I'll give you a 4.


akaukal - 2006-06-10

oops i meant to say verse instead of intro sorry.


zero91 - 2006-06-10

thanks for rating it! but are you talking verse one or verse two?


akaukal - 2006-06-12

The first verse with the really high power chords.


tl_guitarnut - 2006-08-08

good tab man


zero91 - 2006-08-15

thanks!


Add a comment/correction

Complimentary Christian Ringtones
Dadamobile and CGR have teamed up to bring your favorite Christian artists right to your phone. Sign up today and get 10 complementary ringtones!
Tab Country
Did you know CGR has a sister site w/ country guitar tabs? Well we do! Its called Tab Country. It has a great archive with a lot of country tabs.
Rockin Tabs
Are you looking for a site that has rock guitar tabs? Then Rockintabs.com is the place for you. It is a budding site with many rock guitar tabs. Submit your tab today.
Tab Gallery
Tab Gallery has a compilation of christian, rock, and country tabs all in one place. Come visit us.