Guitar Tabs
song title    band name

Join Us Today!

Don't strum alone...
be a part of the largest online Christian music community. Browse thousands of guitar tabs and chat w/ musicians like yourself.


It's Free!

This tab has been rated a 0.00 out of 5 for accuracy. (1 vote)Sorry, but you must be logged in to rate this tab.
Click here to log-in, or you can click here to register.
(Registration is free)

All songs owned by corresponding publishing company. If you make copies of any song on this website, be sure to report your usage to CCLI.
Submitted by: 12gauge

                            ANNIHILATE THE CORRUPT - DEMON HUNTER


DROP B tuning from low to high (B-F#-B-E-G#-C#)



INTRO 1:     Note:  Whenever they (demon hunter) hit the second chord of this intro1,
                  the volume goes down. thats because of the mixer they used in the 
                  recording process, so u can't really get the same sound as the
                  one on the album. But if u have 2 or more channels on u'r amp u 
                  probably could get some sound close 2 it. (Or if you at least have
                  a distortion pedal u probably could).

      
B---0-0-0-0-0-0-0-0-0-0-0-0-0-0-0-0|
F#--6-6-6-6-6-6-6-6-5-5-5-5-5-5-5-5|  x4   
B----------------------------------|


INTRO 2:
B---1-1-1/2-0--1-1/2-0|
F#--1-1-1/2-0--1-1/2-0|   x4
B---1-1-1/2-0--1-1/2-0|




VERSE:  
 Just repeat intro 1 and 2




PRE-CHORUS:

E-----------8--------8b|
B---0-0-0-0-x----000-x-|
F#--0-0-0-0-6----000-6b|   x2
B---0-0-0-0------000---|
    * * * *      ***


CHORUS:
B---3---6---1---8
F#--3---6---1---8
B---3---6---1---8

POST CHORUS:

B-------------------------1-1-1/2-0---1-1/2-0
F#------------------------1-1-1/2-0---1-1/2-0
B---1-1-1/2-0---1-1/2-0---1-1-1/2-0---1-1/2-0







VERSE 2: 
just repeat intro 2 and 1 again


PRE-CHORUS 2:

G#---------------------------------------13--------13b----
E-----------8--------8b------------------16--------16b----
B---0-0-0-0-x----000-x-----(x2)-0-0-0-0--------000--------(x2)
F#--0-0-0-0-6----000-6b---------0-0-0-0--------000--------
B---0-0-0-0------000------------0-0-0-0--------000--------
    * * * *      ***            * * * *        ***



Repeat chorus as needed





BRIDGE 1:
E---8--7
B---x--x  repeat as needed
F#--6--5


BRIDGE 2:

E--------------------|
B-------3---0-8-0-10-|   x4
F#--3-0---0----------|
    * * * * * * *  * 

E------------------|
B-------3p0-8p0-10-|     x4
F#--3p0------------|



POST CHORUS



CHORUS


INTRO 2



PRE-CHORUS 2



Thats it. It would be great if u leave comments/corrections and rate the tab. 
 Thanks, 12gauge!



Comments about this tab

12gauge - 2006-06-17

sorry guys, on the pre-chorus it
is:
B----0-0-0-0-----|
F#---0-0-0-0--6--| etc.
B----0-0-0-0-----|
* * * *

NOT:
E-------------8--|
B----0-0-0-0--x--|
F#---0-0-0-0--6--| etc.
B----0-0-0-0-----|
* * * *


12gauge - 2006-06-17

sorry again, that got blurred up.
The correction above is suppose
to be all palm muted on all the
open B chords for the pre-chorus


12gauge - 2006-07-09

hi agian, I'm beginning to think that the
INTRO 1 may be:

E----8-8-8-8-8-8-8-8-7-7-7-7-7-7-7-7----|
B----x-x-x-x-x-x-x-x-x-x-x-x-x-x-x-x----|
F#---6-6-6-6-6-6-6-6-5-5-5-5-5-5-5-5----| x4
B----0-0-0-0-0-0-0-0--------------------|

I dont know, I think this sounds a little closer


Add a comment/correction

Complimentary Christian Ringtones
Dadamobile and CGR have teamed up to bring your favorite Christian artists right to your phone. Sign up today and get 10 complementary ringtones!
Tab Country
Did you know CGR has a sister site w/ country guitar tabs? Well we do! Its called Tab Country. It has a great archive with a lot of country tabs.
Rockin Tabs
Are you looking for a site that has rock guitar tabs? Then Rockintabs.com is the place for you. It is a budding site with many rock guitar tabs. Submit your tab today.
Tab Gallery
Tab Gallery has a compilation of christian, rock, and country tabs all in one place. Come visit us.