Guitar Tabs
song title    band name

Join Us Today!

Don't strum alone...
be a part of the largest online Christian music community. Browse thousands of guitar tabs and chat w/ musicians like yourself.


It's Free!

This tab has been rated a 5.00 out of 5 for accuracy. (1 vote)Sorry, but you must be logged in to rate this tab.
Click here to log-in, or you can click here to register.
(Registration is free)

All songs owned by corresponding publishing company. If you make copies of any song on this website, be sure to report your usage to CCLI.
Submitted by: sfj777

Artist: Planetshakers
Album: Arise 2006
Song: Redeemer

I think this is pretty much right. There are a few really fiddly bits missing
perhaps but otherwise, its good to play. We play it in my youth band
with no complaints. Enjoy =)


Intro (Same as Chorus)
Guitar 1:
e|-----------------------------|--------------------------------------
b|-----------------------------|---------------------------------------
g|-----------------------------|---------------------------------------
d|-------666---888--444--------|-------666----44-33-44-6-------------
a|--444--444---666--222--------|--444--444----22-11-22-4---------------
E|--222------------------------|--222----------------------------------
“My Savior…”                    “Redeemer…”

Guitar 2:
e|-----------------------------|---------------------------------------
b|-----------------------------|---------------------------------------
g|-----------------------------|---------------------------------------
d|-----------------------------|------------------44-33-44-6-----------
a|-----------------------------|------------------22-11-22-4-----------
E|-----------------------------|---------------------------------------

Guitar 1 keeps playing the intro, while guitar 2 plays this
Riff:
e|-------------------------------------------------------------------
b|---11--7--9--7--12--11--7--9--7--12--------------------------------
g|------------------------------------------------------------------- 
d|------------------------------------------------------------------- 
a|-------------------------------------------------------------------
E|-------------------------------------------------------------------

Verse:
e|-------------------------------------------------------------------
b|-------------------------------------------------------------------
g|-------------------------------------------------------------------
d|-------66--888--44-------------66--888--44------------------------  x2
a|--444--44--666--22------444--44--666--22--------------------------
E|--222----------------------222-------------------------------------
“My Jesus…”

Pre chorus
e|--------------------------------------------------------------------
b|--------------------------------------------------------------------
g|---------------------------------------------------------------------
d|---6—let--------4-------44-33-44-6-----------------------------------
a|---4---ring-----2-------22-11-22-4-----------------------------------
E|---------------------------------------------------------------------
“He Gave his life for me…”

Chorus (guitar 2 plays the riff)
Guitar 1: (same as intro but I’ll write it anyway)
e|-------------------------------|-------------------------------------
b|-------------------------------|--------------------------------------
g|-------------------------------|--------------------------------------
d|-------666---888--444----------|-------666----44-33-44-6------------- x2
a|--444--444---666--222----------|--444--444----22-11-22-4--------------
E|--222--------------------------|--222---------------------------------
“My Saviour is living in me…”

2nd Pre chorus:
e|-------------------------------------------------------------------
b|-------------------------------------------------------------------
g|-------------------------------------------------------------------
d|---6~~--4~~---4/8--6~~--4----44-33-44-6----------------------------
a|---4~~--2~~---2/6--4~~--2----22-11-22-4----------------------------
E|-------------------------------------------------------------------

Bridge:
Guitar 1: let chords ring out
e|-------------------------------------------------------------------
b|-------------------------------------------------------------------
g|-------------------------------------------------------------------
d|--------------6----------8----6-----------4------------------------
a|---4----------4----------6----4-----------2-------------------------
E|---2----------------------------------------------------------------

Guitar 2: (actually played on piano)
e|------------------------------------------------------------------
b|---7--7--9--12--11--9-----7--9--12--11--7---------9---------------
g|-------------------------------------------------------------------
d|-------------------------------------------------------------------
a|-------------------------------------------------------------------
E|-------------------------------------------------------------------

e|--------------------------------------------------------------------
b|---11--9--7--------7--9--12--11-------------------------------------
g|--------------------------------------------------------------------
d|--------------------------------------------------------------------
a|--------------------------------------------------------------------
E|--------------------------------------------------------------------


Both guitars, palm muted:
e|--------------------------------------------------------------------------
b|--------------------------------------------------------------------------
g|--------------------------------------------------------------------------
d|-----------6------8-----6------4------------------------------------ x1
a|--4--------4-x16--6-x8--4-x8---2-x8--let ring----------------------
E|--2-x16-----------------------------------------------------------------
				“…Living for you!!!!”
Let loose!
e|--------------------------------------------------------------------------
b|--------------------------------------------------------------------------
g|--------------------------------------------------------------------------
d|-----------6--------8------6-------4------------------------------------ x2
a|--4--------4-x16--6-x8--4-x8---2-x16------------------------------- 
E|--2-x16-----------------------------------------------------------------

Order:
Intro
Verse
Pre Chorus
Chorus
Intro
Verse
2nd Pre Chorus
Chorus x2
Bridge
Chorus (quiet)
Chorus x2
Intro x2

Comments about this tab

No comments/corrections found. Add your own

Complimentary Christian Ringtones
Dadamobile and CGR have teamed up to bring your favorite Christian artists right to your phone. Sign up today and get 10 complementary ringtones!
Tab Country
Did you know CGR has a sister site w/ country guitar tabs? Well we do! Its called Tab Country. It has a great archive with a lot of country tabs.
Rockin Tabs
Are you looking for a site that has rock guitar tabs? Then Rockintabs.com is the place for you. It is a budding site with many rock guitar tabs. Submit your tab today.
Tab Gallery
Tab Gallery has a compilation of christian, rock, and country tabs all in one place. Come visit us.